  0
SECTION
  2
HEADER
  9
$ACADVER
  1
AC1014
  9
$ACADMAINTVER
 70
     9
  9
$DWGCODEPAGE
  3
ANSI_1251
  9
$INSBASE
 10
0.0
 20
0.0
 30
0.0
  9
$EXTMIN
 10
0.0
 20
0.0
 30
0.0
  9
$EXTMAX
 10
830.0
 20
400.0
 30
0.0
  9
$LIMMIN
 10
0.0
 20
0.0
  9
$LIMMAX
 10
420.0
 20
297.0
  9
$ORTHOMODE
 70
     0
  9
$REGENMODE
 70
     1
  9
$FILLMODE
 70
     1
  9
$QTEXTMODE
 70
     0
  9
$MIRRTEXT
 70
     1
  9
$DRAGMODE
 70
     2
  9
$LTSCALE
 40
1.0
  9
$OSMODE
 70
    37
  9
$ATTMODE
 70
     1
  9
$TEXTSIZE
 40
3.5
  9
$TRACEWID
 40
1.0
  9
$TEXTSTYLE
  7
STANDARD
  9
$CLAYER
  8
0
  9
$CELTYPE
  6
BYLAYER
  9
$CECOLOR
 62
   256
  9
$CELTSCALE
 40
1.0
  9
$DELOBJ
 70
     1
  9
$DISPSILH
 70
     0
  9
$DIMSCALE
 40
1.0
  9
$DIMASZ
 40
2.5
  9
$DIMEXO
 40
0.0
  9
$DIMDLI
 40
3.75
  9
$DIMRND
 40
0.0
  9
$DIMDLE
 40
0.0
  9
$DIMEXE
 40
1.0
  9
$DIMTP
 40
0.0
  9
$DIMTM
 40
0.0
  9
$DIMTXT
 40
3.5
  9
$DIMCEN
 40
2.5
  9
$DIMTSZ
 40
0.0
  9
$DIMTOL
 70
     0
  9
$DIMLIM
 70
     0
  9
$DIMTIH
 70
     1
  9
$DIMTOH
 70
     1
  9
$DIMSE1
 70
     0
  9
$DIMSE2
 70
     0
  9
$DIMTAD
 70
     1
  9
$DIMZIN
 70
     0
  9
$DIMBLK
  1

  9
$DIMASO
 70
     1
  9
$DIMSHO
 70
     1
  9
$DIMPOST
  1

  9
$DIMAPOST
  1

  9
$DIMALT
 70
     0
  9
$DIMALTD
 70
     3
  9
$DIMALTF
 40
0.0393700787
  9
$DIMLFAC
 40
1.0
  9
$DIMTOFL
 70
     1
  9
$DIMTVP
 40
0.0
  9
$DIMTIX
 70
     0
  9
$DIMSOXD
 70
     0
  9
$DIMSAH
 70
     0
  9
$DIMBLK1
  1

  9
$DIMBLK2
  1

  9
$DIMSTYLE
  2
ISO-25
  9
$DIMCLRD
 70
     0
  9
$DIMCLRE
 70
     0
  9
$DIMCLRT
 70
     0
  9
$DIMTFAC
 40
1.0
  9
$DIMGAP
 40
3.0
  9
$DIMJUST
 70
     0
  9
$DIMSD1
 70
     0
  9
$DIMSD2
 70
     0
  9
$DIMTOLJ
 70
     0
  9
$DIMTZIN
 70
     0
  9
$DIMALTZ
 70
     0
  9
$DIMALTTZ
 70
     0
  9
$DIMFIT
 70
     3
  9
$DIMUPT
 70
     0
  9
$DIMUNIT
 70
     2
  9
$DIMDEC
 70
     2
  9
$DIMTDEC
 70
     3
  9
$DIMALTU
 70
     2
  9
$DIMALTTD
 70
     3
  9
$DIMTXSTY
  7
STANDARD
  9
$DIMAUNIT
 70
     0
  9
$LUNITS
 70
     2
  9
$LUPREC
 70
     2
  9
$SKETCHINC
 40
1.0
  9
$FILLETRAD
 40
10.0
  9
$AUNITS
 70
     1
  9
$AUPREC
 70
     2
  9
$MENU
  1
.
  9
$ELEVATION
 40
0.0
  9
$PELEVATION
 40
0.0
  9
$THICKNESS
 40
0.0
  9
$LIMCHECK
 70
     0
  9
$CHAMFERA
 40
0.0
  9
$CHAMFERB
 40
0.0
  9
$CHAMFERC
 40
0.0
  9
$CHAMFERD
 40
0.0
  9
$SKPOLY
 70
     0
  9
$TDCREATE
 40
2459260.677622963
  9
$TDUPDATE
 40
2459260.677651945
  9
$TDINDWG
 40
0.0000000116
  9
$TDUSRTIMER
 40
0.0000000116
  9
$USRTIMER
 70
     1
  9
$ANGBASE
 50
0.0
  9
$ANGDIR
 70
     0
  9
$PDMODE
 70
     0
  9
$PDSIZE
 40
-1.0
  9
$PLINEWID
 40
0.0
  9
$COORDS
 70
     1
  9
$SPLFRAME
 70
     0
  9
$SPLINETYPE
 70
     6
  9
$SPLINESEGS
 70
     8
  9
$ATTDIA
 70
     0
  9
$ATTREQ
 70
     1
  9
$HANDLING
 70
     1
  9
$HANDSEED
  5
76B
  9
$SURFTAB1
 70
     6
  9
$SURFTAB2
 70
     6
  9
$SURFTYPE
 70
     6
  9
$SURFU
 70
     6
  9
$SURFV
 70
     6
  9
$UCSNAME
  2

  9
$UCSORG
 10
0.0
 20
0.0
 30
0.0
  9
$UCSXDIR
 10
1.0
 20
0.0
 30
0.0
  9
$UCSYDIR
 10
0.0
 20
1.0
 30
0.0
  9
$PUCSNAME
  2

  9
$PUCSORG
 10
0.0
 20
0.0
 30
0.0
  9
$PUCSXDIR
 10
1.0
 20
0.0
 30
0.0
  9
$PUCSYDIR
 10
0.0
 20
1.0
 30
0.0
  9
$USERI1
 70
     0
  9
$USERI2
 70
     0
  9
$USERI3
 70
     0
  9
$USERI4
 70
     0
  9
$USERI5
 70
     0
  9
$USERR1
 40
0.0
  9
$USERR2
 40
0.0
  9
$USERR3
 40
0.0
  9
$USERR4
 40
0.0
  9
$USERR5
 40
0.0
  9
$WORLDVIEW
 70
     1
  9
$SHADEDGE
 70
     3
  9
$SHADEDIF
 70
    70
  9
$TILEMODE
 70
     1
  9
$MAXACTVP
 70
    64
  9
$PINSBASE
 10
0.0
 20
0.0
 30
0.0
  9
$PLIMCHECK
 70
     0
  9
$PEXTMIN
 10
1.0000000000E+20
 20
1.0000000000E+20
 30
1.0000000000E+20
  9
$PEXTMAX
 10
-1.0000000000E+20
 20
-1.0000000000E+20
 30
-1.0000000000E+20
  9
$PLIMMIN
 10
0.0
 20
0.0
  9
$PLIMMAX
 10
420.0
 20
297.0
  9
$UNITMODE
 70
     0
  9
$VISRETAIN
 70
     1
  9
$PLINEGEN
 70
     0
  9
$PSLTSCALE
 70
     1
  9
$TREEDEPTH
 70
  3020
  9
$PICKSTYLE
 70
     1
  9
$CMLSTYLE
  2
STANDARD
  9
$CMLJUST
 70
     0
  9
$CMLSCALE
 40
20.0
  9
$PROXYGRAPHICS
 70
     1
  9
$MEASUREMENT
 70
     1
  0
ENDSEC
  0
SECTION
  2
CLASSES
  0
CLASS
  1
ACDBDICTIONARYWDFLT
  2
AcDbDictionaryWithDefault
  3
ObjectDBX Classes
 90
        0
280
     0
281
     0
  0
CLASS
  1
VISUALSTYLE
  2
AcDbVisualStyle
  3
ObjectDBX Classes
 90
     4095
280
     0
281
     0
  0
CLASS
  1
MATERIAL
  2
AcDbMaterial
  3
ObjectDBX Classes
 90
     1153
280
     0
281
     0
  0
CLASS
  1
SCALE
  2
AcDbScale
  3
ObjectDBX Classes
 90
     1153
280
     0
281
     0
  0
CLASS
  1
TABLESTYLE
  2
AcDbTableStyle
  3
ObjectDBX Classes
 90
     4095
280
     0
281
     0
  0
CLASS
  1
MLEADERSTYLE
  2
AcDbMLeaderStyle
  3
ACDB_MLEADERSTYLE_CLASS
 90
     4095
280
     0
281
     0
  0
CLASS
  1
SUN
  2
AcDbSun
  3
SCENEOE
 90
     1153
280
     0
281
     0
  0
CLASS
  1
XRECORD
  2
AcDbXrecord
  3
ObjectDBX Classes
 90
        0
280
     0
281
     0
  0
CLASS
  1
LWPOLYLINE
  2
AcDbPolyline
  3
ObjectDBX Classes
 90
        0
280
     0
281
     1
  0
CLASS
  1
HATCH
  2
AcDbHatch
  3
ObjectDBX Classes
 90
        0
280
     0
281
     1
  0
ENDSEC
  0
SECTION
  2
TABLES
  0
TABLE
  2
VPORT
  5
8
330
0
100
AcDbSymbolTable
 70
     1
  0
VPORT
  5
29
330
8
100
AcDbSymbolTableRecord
100
AcDbViewportTableRecord
  2
*ACTIVE
 70
     0
 10
0.0
 20
0.0
 11
1.0
 21
1.0
 12
415.0
 22
200.0
 13
0.0
 23
0.0
 14
10.0
 24
10.0
 15
10.0
 25
10.0
 16
0.0
 26
0.0
 36
1.0
 17
0.0
 27
0.0
 37
0.0
 40
408.0
 41
2.075
 42
50.0
 43
0.0
 44
0.0
 50
0.0
 51
0.0
 71
     0
 72
   100
 73
     1
 74
     3
 75
     0
 76
     0
 77
     0
 78
     0
  0
ENDTAB
  0
TABLE
  2
LTYPE
  5
5
330
0
100
AcDbSymbolTable
 70
     6
  0
LTYPE
  5
14
330
5
100
AcDbSymbolTableRecord
100
AcDbLinetypeTableRecord
  2
BYBLOCK
 70
     0
  3

 72
    65
 73
     0
 40
0.0
  0
LTYPE
  5
15
330
5
100
AcDbSymbolTableRecord
100
AcDbLinetypeTableRecord
  2
BYLAYER
 70
     0
  3

 72
    65
 73
     0
 40
0.0
  0
LTYPE
  5
16
330
5
100
AcDbSymbolTableRecord
100
AcDbLinetypeTableRecord
  2
CONTINUOUS
 70
     0
  3
Solid line
 72
    65
 73
     0
 40
0.0
  0
LTYPE
  5
6E
330
5
100
AcDbSymbolTableRecord
100
AcDbLinetypeTableRecord
  2
HIDDEN
 70
     0
  3
Hidden __ __ __ __ __ __ __ __ __ __ __ __ __ __
 72
    65
 73
     2
 40
1.905
 49
1.27
 74
     0
 49
-0.635
 74
     0
  0
LTYPE
  5
6F
330
5
100
AcDbSymbolTableRecord
100
AcDbLinetypeTableRecord
  2
PHANTOM
 70
     0
  3
Phantom ______  __  __  ______  __  __  ______
 72
    65
 73
     6
 40
12.7
 49
6.35
 74
     0
 49
-1.27
 74
     0
 49
1.27
 74
     0
 49
-1.27
 74
     0
 49
1.27
 74
     0
 49
-1.27
 74
     0
  0
LTYPE
  5
70
330
5
100
AcDbSymbolTableRecord
100
AcDbLinetypeTableRecord
  2
CENTER
 70
     0
  3
Center ____ _ ____ _ ____ _ ____ _ ____ _ ____
 72
    65
 73
     4
 40
10.16
 49
6.35
 74
     0
 49
-1.27
 74
     0
 49
1.27
 74
     0
 49
-1.27
 74
     0
  0
LTYPE
  5
71
330
5
100
AcDbSymbolTableRecord
100
AcDbLinetypeTableRecord
  2
CENTERX2
 70
     0
  3
Center (2x) ________  __  ________  __  _____
 72
    65
 73
     4
 40
20.32
 49
12.7
 74
     0
 49
-2.54
 74
     0
 49
2.54
 74
     0
 49
-2.54
 74
     0
  0
LTYPE
  5
72
330
5
100
AcDbSymbolTableRecord
100
AcDbLinetypeTableRecord
  2
DOT2
 70
     0
  3
Dot (.5x) ........................................
 72
    65
 73
     2
 40
0.635
 49
0.0
 74
     0
 49
-0.635
 74
     0
  0
ENDTAB
  0
TABLE
  2
LAYER
  5
2
330
0
100
AcDbSymbolTable
 70
     1
  0
LAYER
  5
10
330
2
100
AcDbSymbolTableRecord
100
AcDbLayerTableRecord
  2
0
 70
     0
 62
     7
  6
CONTINUOUS
  0
ENDTAB
  0
TABLE
  2
STYLE
  5
3
330
0
100
AcDbSymbolTable
 70
     1
  0
STYLE
  5
11
330
3
100
AcDbSymbolTableRecord
100
AcDbTextStyleTableRecord
  2
STANDARD
 70
     0
 40
0.0
 41
1.0
 50
0.0
 71
     0
 42
3.5
  3
txt
  4

  0
ENDTAB
  0
TABLE
  2
VIEW
  5
6
330
0
100
AcDbSymbolTable
 70
     0
  0
ENDTAB
  0
TABLE
  2
UCS
  5
7
330
0
100
AcDbSymbolTable
 70
     0
  0
ENDTAB
  0
TABLE
  2
APPID
  5
9
330
0
100
AcDbSymbolTable
 70
     1
  0
APPID
  5
12
330
9
100
AcDbSymbolTableRecord
100
AcDbRegAppTableRecord
  2
ACAD
 70
     0
  0
ENDTAB
  0
TABLE
  2
DIMSTYLE
  5
A
330
0
100
AcDbSymbolTable
 70
     1
  0
DIMSTYLE
105
27
330
A
100
AcDbSymbolTableRecord
100
AcDbDimStyleTableRecord
  2
ISO-25
 70
     0
  3

  4

  5

  6

  7

 40
1.0
 41
2.5
 42
0.625
 43
3.75
 44
1.25
 45
0.0
 46
0.0
 47
0.0
 48
0.0
140
2.5
141
2.5
142
0.0
143
0.0393700787
144
1.0
145
0.0
146
1.0
147
0.625
 71
     0
 72
     0
 73
     0
 74
     0
 75
     0
 76
     0
 77
     1
 78
     8
170
     0
171
     3
172
     1
173
     0
174
     0
175
     0
176
     0
177
     0
178
     0
270
     2
271
     2
272
     2
273
     2
274
     3
340
11
275
     0
280
     0
281
     0
282
     0
283
     0
284
     8
285
     0
286
     0
287
     3
288
     0
  0
ENDTAB
  0
TABLE
  2
BLOCK_RECORD
  5
1
330
0
100
AcDbSymbolTable
 70
     1
  0
BLOCK_RECORD
  5
1F
330
1
100
AcDbSymbolTableRecord
100
AcDbBlockTableRecord
  2
*MODEL_SPACE
  0
BLOCK_RECORD
  5
1B
330
1
100
AcDbSymbolTableRecord
100
AcDbBlockTableRecord
  2
*PAPER_SPACE
  0
BLOCK_RECORD
  5
23
330
1
100
AcDbSymbolTableRecord
100
AcDbBlockTableRecord
  2
*PAPER_SPACE0
  0
ENDTAB
  0
ENDSEC
  0
SECTION
  2
BLOCKS
  0
BLOCK
  5
20
330
1F
100
AcDbEntity
  8
0
100
AcDbBlockBegin
  2
*MODEL_SPACE
 70
     0
 10
0.0
 20
0.0
 30
0.0
  3
*MODEL_SPACE
  1

  0
ENDBLK
  5
21
330
1F
100
AcDbEntity
  8
0
100
AcDbBlockEnd
  0
BLOCK
  5
1C
330
1B
100
AcDbEntity
 67
     1
  8
0
100
AcDbBlockBegin
  2
*PAPER_SPACE
 70
     0
 10
0.0
 20
0.0
 30
0.0
  3
*PAPER_SPACE
  1

  0
ENDBLK
  5
1D
330
1B
100
AcDbEntity
 67
     1
  8
0
100
AcDbBlockEnd
  0
BLOCK
  5
24
330
23
100
AcDbEntity
  8
0
100
AcDbBlockBegin
  2
*PAPER_SPACE0
 70
     0
 10
0.0
 20
0.0
 30
0.0
  3
*PAPER_SPACE0
  1

  0
ENDBLK
  5
25
330
23
100
AcDbEntity
  8
0
100
AcDbBlockEnd
  0
ENDSEC
  0
SECTION
  2
ENTITIES
  0
LINE
  5
73
330
1F
100
AcDbEntity
  8
0
  6
CONTINUOUS
 62
     7
100
AcDbLine
 10
0.0
 20
0.0
 30
0.0
 11
830.0
 21
0.0
 31
0.0
  0
LINE
  5
74
330
1F
100
AcDbEntity
  8
0
  6
CONTINUOUS
 62
     7
100
AcDbLine
 10
0.0
 20
0.0
 30
0.0
 11
0.0
 21
400.0
 31
0.0
  0
LINE
  5
75
330
1F
100
AcDbEntity
  8
0
  6
CONTINUOUS
 62
     7
100
AcDbLine
 10
0.0
 20
400.0
 30
0.0
 11
830.0
 21
400.0
 31
0.0
  0
LINE
  5
76
330
1F
100
AcDbEntity
  8
0
  6
CONTINUOUS
 62
     7
100
AcDbLine
 10
830.0
 20
0.0
 30
0.0
 11
830.0
 21
400.0
 31
0.0
  0
CIRCLE
  5
1F1
330
1F
100
AcDbEntity
  8
0
  6
CONTINUOUS
 62
     7
100
AcDbCircle
 10
475.5972481158
 20
338.0181183054
 30
0.0
 40
5.0
  0
CIRCLE
  5
1F2
330
1F
100
AcDbEntity
  8
0
  6
CONTINUOUS
 62
     7
100
AcDbCircle
 10
224.4027331437
 20
338.0181183054
 30
0.0
 40
4.999999999999943
  0
CIRCLE
  5
1F3
330
1F
100
AcDbEntity
  8
0
  6
CONTINUOUS
 62
     7
100
AcDbCircle
 10
349.9999906297
 20
195.0000024508
 30
0.0
 40
165.5
  0
LINE
  5
3F2
330
1F
100
AcDbEntity
  8
0
  6
CONTINUOUS
 62
     7
100
AcDbLine
 10
647.9781182099
 20
222.1871481515
 30
0.0
 11
651.9367766116
 21
219.9016156576
 31
0.0
  0
LINE
  5
3F3
330
1F
100
AcDbEntity
  8
0
  6
CONTINUOUS
 62
     7
100
AcDbLine
 10
630.6576101342
 20
212.1871481515
 30
0.0
 11
647.9781182099
 21
222.1871481515
 31
0.0
  0
LINE
  5
3F4
330
1F
100
AcDbEntity
  8
0
  6
CONTINUOUS
 62
     7
100
AcDbLine
 10
636.6576101342
 20
208.7230465363
 30
0.0
 11
630.6576101342
 21
212.1871481515
 31
0.0
  0
LINE
  5
3F5
330
1F
100
AcDbEntity
  8
0
  6
CONTINUOUS
 62
     7
100
AcDbLine
 10
647.9781182099
 20
215.2589449212
 30
0.0
 11
636.6576101342
 21
208.7230465363
 31
0.0
  0
LINE
  5
3F6
330
1F
100
AcDbEntity
  8
0
  6
CONTINUOUS
 62
     7
100
AcDbLine
 10
653.579692135
 20
212.0248747077
 30
0.0
 11
647.9781182099
 21
215.2589449212
 31
0.0
  0
LINE
  5
3F7
330
1F
100
AcDbEntity
  8
0
  6
CONTINUOUS
 62
     7
100
AcDbLine
 10
618.6576101342
 20
205.2589449212
 30
0.0
 11
635.9781182099
 21
195.2589449212
 31
0.0
  0
LINE
  5
3F8
330
1F
100
AcDbEntity
  8
0
  6
CONTINUOUS
 62
     7
100
AcDbLine
 10
601.3371020586
 20
195.2589449212
 30
0.0
 11
618.6576101342
 21
205.2589449212
 31
0.0
  0
LINE
  5
3F9
330
1F
100
AcDbEntity
  8
0
  6
CONTINUOUS
 62
     7
100
AcDbLine
 10
607.3371020586
 20
191.794843306
 30
0.0
 11
601.3371020586
 21
195.2589449212
 31
0.0
  0
LINE
  5
3FA
330
1F
100
AcDbEntity
  8
0
  6
CONTINUOUS
 62
     7
100
AcDbLine
 10
618.6576101342
 20
198.3307416909
 30
0.0
 11
607.3371020586
 21
191.794843306
 31
0.0
  0
LINE
  5
3FB
330
1F
100
AcDbEntity
  8
0
  6
CONTINUOUS
 62
     7
100
AcDbLine
 10
629.9781182099
 20
191.794843306
 30
0.0
 11
618.6576101342
 21
198.3307416909
 31
0.0
  0
LINE
  5
3FC
330
1F
100
AcDbEntity
  8
0
  6
CONTINUOUS
 62
     7
100
AcDbLine
 10
635.9781182099
 20
195.2589449212
 30
0.0
 11
629.9781182099
 21
191.794843306
 31
0.0
  0
LINE
  5
3FD
330
1F
100
AcDbEntity
  8
0
  6
CONTINUOUS
 62
     7
100
AcDbLine
 10
616.6576101342
 20
208.7230465363
 30
0.0
 11
599.3371020586
 21
198.7230465363
 31
0.0
  0
LINE
  5
3FE
330
1F
100
AcDbEntity
  8
0
  6
CONTINUOUS
 62
     7
100
AcDbLine
 10
616.6576101342
 20
228.7230465363
 30
0.0
 11
616.6576101342
 21
208.7230465363
 31
0.0
  0
LINE
  5
3FF
330
1F
100
AcDbEntity
  8
0
  6
CONTINUOUS
 62
     7
100
AcDbLine
 10
610.6576101342
 20
225.2589449212
 30
0.0
 11
616.6576101342
 21
228.7230465363
 31
0.0
  0
LINE
  5
400
330
1F
100
AcDbEntity
  8
0
  6
CONTINUOUS
 62
     7
100
AcDbLine
 10
610.6576101342
 20
212.1871481515
 30
0.0
 11
610.6576101342
 21
225.2589449212
 31
0.0
  0
LINE
  5
401
330
1F
100
AcDbEntity
  8
0
  6
CONTINUOUS
 62
     7
100
AcDbLine
 10
599.3371020586
 20
205.6512497666
 30
0.0
 11
610.6576101342
 21
212.1871481515
 31
0.0
  0
LINE
  5
402
330
1F
100
AcDbEntity
  8
0
  6
CONTINUOUS
 62
     7
100
AcDbLine
 10
599.3371020586
 20
198.7230465363
 30
0.0
 11
599.3371020586
 21
205.6512497666
 31
0.0
  0
LINE
  5
403
330
1F
100
AcDbEntity
  8
0
  6
CONTINUOUS
 62
     7
100
AcDbLine
 10
645.9781182099
 20
157.9412497666
 30
0.0
 11
628.6576101342
 21
147.9412497666
 31
0.0
  0
LINE
  5
404
330
1F
100
AcDbEntity
  8
0
  6
CONTINUOUS
 62
     7
100
AcDbLine
 10
645.9781182099
 20
177.9412497666
 30
0.0
 11
645.9781182099
 21
157.9412497666
 31
0.0
  0
LINE
  5
405
330
1F
100
AcDbEntity
  8
0
  6
CONTINUOUS
 62
     7
100
AcDbLine
 10
639.9781182099
 20
174.4771481515
 30
0.0
 11
645.9781182099
 21
177.9412497666
 31
0.0
  0
LINE
  5
406
330
1F
100
AcDbEntity
  8
0
  6
CONTINUOUS
 62
     7
100
AcDbLine
 10
639.9781182099
 20
161.4053513817
 30
0.0
 11
639.9781182099
 21
174.4771481515
 31
0.0
  0
LINE
  5
407
330
1F
100
AcDbEntity
  8
0
  6
CONTINUOUS
 62
     7
100
AcDbLine
 10
628.6576101342
 20
154.8694529969
 30
0.0
 11
639.9781182099
 21
161.4053513817
 31
0.0
  0
LINE
  5
408
330
1F
100
AcDbEntity
  8
0
  6
CONTINUOUS
 62
     7
100
AcDbLine
 10
628.6576101342
 20
147.9412497666
 30
0.0
 11
628.6576101342
 21
154.8694529969
 31
0.0
  0
LINE
  5
409
330
1F
100
AcDbEntity
  8
0
  6
CONTINUOUS
 62
     7
100
AcDbLine
 10
616.6576101342
 20
174.8694529969
 30
0.0
 11
599.3371020586
 21
164.8694529969
 31
0.0
  0
LINE
  5
40A
330
1F
100
AcDbEntity
  8
0
  6
CONTINUOUS
 62
     7
100
AcDbLine
 10
616.6576101342
 20
194.8694517229
 30
0.0
 11
616.6576101342
 21
174.8694529969
 31
0.0
  0
LINE
  5
40B
330
1F
100
AcDbEntity
  8
0
  6
CONTINUOUS
 62
     7
100
AcDbLine
 10
610.6576101342
 20
191.4053501078
 30
0.0
 11
616.6576101342
 21
194.8694517229
 31
0.0
  0
LINE
  5
40C
330
1F
100
AcDbEntity
  8
0
  6
CONTINUOUS
 62
     7
100
AcDbLine
 10
610.6576101342
 20
178.3335533381
 30
0.0
 11
610.6576101342
 21
191.4053501078
 31
0.0
  0
LINE
  5
40D
330
1F
100
AcDbEntity
  8
0
  6
CONTINUOUS
 62
     7
100
AcDbLine
 10
599.3371020586
 20
171.7976561989
 30
0.0
 11
610.6576101342
 21
178.3335533381
 31
0.0
  0
LINE
  5
40E
330
1F
100
AcDbEntity
  8
0
  6
CONTINUOUS
 62
     7
100
AcDbLine
 10
599.3371020586
 20
164.8694529969
 30
0.0
 11
599.3371020586
 21
171.7976561989
 31
0.0
  0
LINE
  5
40F
330
1F
100
AcDbEntity
  8
0
  6
CONTINUOUS
 62
     7
100
AcDbLine
 10
647.9781182099
 20
188.333554612
 30
0.0
 11
654.4707699997
 21
184.5850203534
 31
0.0
  0
LINE
  5
410
330
1F
100
AcDbEntity
  8
0
  6
CONTINUOUS
 62
     7
100
AcDbLine
 10
630.6576101342
 20
178.333554612
 30
0.0
 11
647.9781182099
 21
188.333554612
 31
0.0
  0
LINE
  5
411
330
1F
100
AcDbEntity
  8
0
  6
CONTINUOUS
 62
     7
100
AcDbLine
 10
636.6576101342
 20
174.8694529969
 30
0.0
 11
630.6576101342
 21
178.333554612
 31
0.0
  0
LINE
  5
412
330
1F
100
AcDbEntity
  8
0
  6
CONTINUOUS
 62
     7
100
AcDbLine
 10
647.9781182099
 20
181.4053513817
 30
0.0
 11
636.6576101342
 21
174.8694529969
 31
0.0
  0
LINE
  5
413
330
1F
100
AcDbEntity
  8
0
  6
CONTINUOUS
 62
     7
100
AcDbLine
 10
653.609586963
 20
178.1540213812
 30
0.0
 11
647.9781182099
 21
181.4053513817
 31
0.0
  0
LINE
  5
414
330
1F
100
AcDbEntity
  8
0
  6
CONTINUOUS
 62
     7
100
AcDbLine
 10
568.0165939829
 20
259.1153488338
 30
0.0
 11
562.0165939829
 21
262.579450449
 31
0.0
  0
LINE
  5
415
330
1F
100
AcDbEntity
  8
0
  6
CONTINUOUS
 62
     7
100
AcDbLine
 10
562.0165939829
 20
262.579450449
 30
0.0
 11
562.0165939829
 21
242.579450449
 31
0.0
  0
LINE
  5
416
330
1F
100
AcDbEntity
  8
0
  6
CONTINUOUS
 62
     7
100
AcDbLine
 10
562.0165939829
 20
242.579450449
 30
0.0
 11
579.3371020586
 21
232.579450449
 31
0.0
  0
LINE
  5
417
330
1F
100
AcDbEntity
  8
0
  6
CONTINUOUS
 62
     7
100
AcDbLine
 10
579.3371020586
 20
232.579450449
 30
0.0
 11
579.3371020586
 21
239.5076536793
 31
0.0
  0
LINE
  5
418
330
1F
100
AcDbEntity
  8
0
  6
CONTINUOUS
 62
     7
100
AcDbLine
 10
579.3371020586
 20
239.5076536793
 30
0.0
 11
568.0165939829
 21
246.0435520641
 31
0.0
  0
LINE
  5
419
330
1F
100
AcDbEntity
  8
0
  6
CONTINUOUS
 62
     7
100
AcDbLine
 10
568.0165939829
 20
246.0435520641
 30
0.0
 11
568.0165939829
 21
259.1153488338
 31
0.0
  0
LINE
  5
41A
330
1F
100
AcDbEntity
  8
0
  6
CONTINUOUS
 62
     7
100
AcDbLine
 10
558.016592328
 20
262.5794533154
 30
0.0
 11
558.016592328
 21
242.5794533154
 31
0.0
  0
LINE
  5
41B
330
1F
100
AcDbEntity
  8
0
  6
CONTINUOUS
 62
     7
100
AcDbLine
 10
552.0165934312
 20
259.1153497893
 30
0.0
 11
558.016592328
 21
262.5794533154
 31
0.0
  0
LINE
  5
41C
330
1F
100
AcDbEntity
  8
0
  6
CONTINUOUS
 62
     7
100
AcDbLine
 10
552.0165934312
 20
246.0435530196
 30
0.0
 11
552.0165934312
 21
259.1153497893
 31
0.0
  0
LINE
  5
41D
330
1F
100
AcDbEntity
  8
0
  6
CONTINUOUS
 62
     7
100
AcDbLine
 10
544.9255893915
 20
241.9495599284
 30
0.0
 11
552.0165934312
 21
246.0435530196
 31
0.0
  0
LINE
  5
41E
330
1F
100
AcDbEntity
  8
0
  6
CONTINUOUS
 62
     7
100
AcDbLine
 10
558.016592328
 20
242.5794533154
 30
0.0
 11
546.3015974594
 21
235.8157978745
 31
0.0
  0
LINE
  5
41F
330
1F
100
AcDbEntity
  8
0
  6
CONTINUOUS
 62
     7
100
AcDbLine
 10
543.1288574054
 20
248.8654906407
 30
0.0
 11
548.0165950861
 21
246.043553975
 31
0.0
  0
LINE
  5
420
330
1F
100
AcDbEntity
  8
0
  6
CONTINUOUS
 62
     7
100
AcDbLine
 10
548.0165950861
 20
246.043553975
 30
0.0
 11
544.4274930475
 21
243.9713849469
 31
0.0
  0
LINE
  5
421
330
1F
100
AcDbEntity
  8
0
  6
CONTINUOUS
 62
     7
100
AcDbLine
 10
599.3371020586
 20
266.4330465363
 30
0.0
 11
599.3371020586
 21
273.3612497666
 31
0.0
  0
LINE
  5
422
330
1F
100
AcDbEntity
  8
0
  6
CONTINUOUS
 62
     7
100
AcDbLine
 10
615.6538699191
 20
275.8535368529
 30
0.0
 11
599.3371020586
 21
266.4330465363
 31
0.0
  0
LINE
  5
423
330
1F
100
AcDbEntity
  8
0
  6
CONTINUOUS
 62
     7
100
AcDbLine
 10
599.3371020586
 20
273.3612497666
 30
0.0
 11
610.3701078434
 21
279.7311586265
 31
0.0
  0
LINE
  5
424
330
1F
100
AcDbEntity
  8
0
  6
CONTINUOUS
 62
     7
100
AcDbLine
 10
585.5163905687
 20
292.3100962136
 30
0.0
 11
570.0165587323
 21
283.3612641305
 31
0.0
  0
LINE
  5
425
330
1F
100
AcDbEntity
  8
0
  6
CONTINUOUS
 62
     7
100
AcDbLine
 10
570.0165587323
 20
290.2894673608
 30
0.0
 11
578.856448187
 21
295.393179917
 31
0.0
  0
LINE
  5
426
330
1F
100
AcDbEntity
  8
0
  6
CONTINUOUS
 62
     7
100
AcDbLine
 10
570.0165587323
 20
283.3612641305
 30
0.0
 11
570.0165587323
 21
290.2894673608
 31
0.0
  0
LINE
  5
427
330
1F
100
AcDbEntity
  8
0
  6
CONTINUOUS
 62
     7
100
AcDbLine
 10
587.3371020586
 20
225.6512497666
 30
0.0
 11
570.0165939829
 21
215.6512497666
 31
0.0
  0
LINE
  5
428
330
1F
100
AcDbEntity
  8
0
  6
CONTINUOUS
 62
     7
100
AcDbLine
 10
587.3371020586
 20
245.6512472187
 30
0.0
 11
587.3371020586
 21
225.6512497666
 31
0.0
  0
LINE
  5
429
330
1F
100
AcDbEntity
  8
0
  6
CONTINUOUS
 62
     7
100
AcDbLine
 10
581.3371020586
 20
242.1871456036
 30
0.0
 11
587.3371020586
 21
245.6512472187
 31
0.0
  0
LINE
  5
42A
330
1F
100
AcDbEntity
  8
0
  6
CONTINUOUS
 62
     7
100
AcDbLine
 10
581.3371020586
 20
229.1153513817
 30
0.0
 11
581.3371020586
 21
242.1871456036
 31
0.0
  0
LINE
  5
42B
330
1F
100
AcDbEntity
  8
0
  6
CONTINUOUS
 62
     7
100
AcDbLine
 10
570.0165939829
 20
222.5794529969
 30
0.0
 11
581.3371020586
 21
229.1153513817
 31
0.0
  0
LINE
  5
42C
330
1F
100
AcDbEntity
  8
0
  6
CONTINUOUS
 62
     7
100
AcDbLine
 10
570.0165939829
 20
215.6512497666
 30
0.0
 11
570.0165939829
 21
222.5794529969
 31
0.0
  0
LINE
  5
42D
330
1F
100
AcDbEntity
  8
0
  6
CONTINUOUS
 62
     7
100
AcDbLine
 10
560.0165926975
 20
232.1871485608
 30
0.0
 11
548.6960870104
 21
225.6512491296
 31
0.0
  0
LINE
  5
42E
330
1F
100
AcDbEntity
  8
0
  6
CONTINUOUS
 62
     7
100
AcDbLine
 10
571.3371019145
 20
225.651249517
 30
0.0
 11
560.0165926975
 21
232.1871485608
 31
0.0
  0
LINE
  5
42F
330
1F
100
AcDbEntity
  8
0
  6
CONTINUOUS
 62
     7
100
AcDbLine
 10
577.3371017827
 20
229.115350904
 30
0.0
 11
571.3371019145
 21
225.651249517
 31
0.0
  0
LINE
  5
430
330
1F
100
AcDbEntity
  8
0
  6
CONTINUOUS
 62
     7
100
AcDbLine
 10
560.016592328
 20
239.1153517002
 30
0.0
 11
577.3371017827
 21
229.115350904
 31
0.0
  0
LINE
  5
431
330
1F
100
AcDbEntity
  8
0
  6
CONTINUOUS
 62
     7
100
AcDbLine
 10
547.1183961888
 20
231.6685746872
 30
0.0
 11
560.016592328
 21
239.1153517002
 31
0.0
  0
LINE
  5
432
330
1F
100
AcDbEntity
  8
0
  6
CONTINUOUS
 62
     7
100
AcDbLine
 10
548.6960870104
 20
225.6512491296
 30
0.0
 11
548.088683542
 21
226.0019336856
 31
0.0
  0
LINE
  5
433
330
1F
100
AcDbEntity
  8
0
  6
CONTINUOUS
 62
     7
100
AcDbLine
 10
587.3371020586
 20
124.0876562271
 30
0.0
 11
570.0165939829
 21
114.0876562271
 31
0.0
  0
LINE
  5
434
330
1F
100
AcDbEntity
  8
0
  6
CONTINUOUS
 62
     7
100
AcDbLine
 10
587.3371020586
 20
144.0876562271
 30
0.0
 11
587.3371020586
 21
124.0876562271
 31
0.0
  0
LINE
  5
435
330
1F
100
AcDbEntity
  8
0
  6
CONTINUOUS
 62
     7
100
AcDbLine
 10
581.3371020586
 20
140.623554612
 30
0.0
 11
587.3371020586
 21
144.0876562271
 31
0.0
  0
LINE
  5
436
330
1F
100
AcDbEntity
  8
0
  6
CONTINUOUS
 62
     7
100
AcDbLine
 10
581.3371020586
 20
127.5517578423
 30
0.0
 11
581.3371020586
 21
140.623554612
 31
0.0
  0
LINE
  5
437
330
1F
100
AcDbEntity
  8
0
  6
CONTINUOUS
 62
     7
100
AcDbLine
 10
570.0165939829
 20
121.0158594574
 30
0.0
 11
581.3371020586
 21
127.5517578423
 31
0.0
  0
LINE
  5
438
330
1F
100
AcDbEntity
  8
0
  6
CONTINUOUS
 62
     7
100
AcDbLine
 10
570.0165939829
 20
114.0876562271
 30
0.0
 11
570.0165939829
 21
121.0158594574
 31
0.0
  0
LINE
  5
439
330
1F
100
AcDbEntity
  8
0
  6
CONTINUOUS
 62
     7
100
AcDbLine
 10
560.0165939829
 20
137.5489449212
 30
0.0
 11
577.3371020586
 21
127.5489449212
 31
0.0
  0
LINE
  5
43A
330
1F
100
AcDbEntity
  8
0
  6
CONTINUOUS
 62
     7
100
AcDbLine
 10
542.6960859072
 20
127.5489449212
 30
0.0
 11
560.0165939829
 21
137.5489449212
 31
0.0
  0
LINE
  5
43B
330
1F
100
AcDbEntity
  8
0
  6
CONTINUOUS
 62
     7
100
AcDbLine
 10
548.6960859072
 20
124.084843306
 30
0.0
 11
542.6960859072
 21
127.5489449212
 31
0.0
  0
LINE
  5
43C
330
1F
100
AcDbEntity
  8
0
  6
CONTINUOUS
 62
     7
100
AcDbLine
 10
560.0165939829
 20
130.6207416909
 30
0.0
 11
548.6960859072
 21
124.084843306
 31
0.0
  0
LINE
  5
43D
330
1F
100
AcDbEntity
  8
0
  6
CONTINUOUS
 62
     7
100
AcDbLine
 10
571.3371020586
 20
124.084843306
 30
0.0
 11
560.0165939829
 21
130.6207416909
 31
0.0
  0
LINE
  5
43E
330
1F
100
AcDbEntity
  8
0
  6
CONTINUOUS
 62
     7
100
AcDbLine
 10
577.3371020586
 20
127.5489449212
 30
0.0
 11
571.3371020586
 21
124.084843306
 31
0.0
  0
LINE
  5
43F
330
1F
100
AcDbEntity
  8
0
  6
CONTINUOUS
 62
     7
100
AcDbLine
 10
568.0165939829
 20
123.6953513817
 30
0.0
 11
562.0165939829
 21
127.1594529969
 31
0.0
  0
LINE
  5
440
330
1F
100
AcDbEntity
  8
0
  6
CONTINUOUS
 62
     7
100
AcDbLine
 10
562.0165939829
 20
127.1594529969
 30
0.0
 11
562.0165939829
 21
107.1594529969
 31
0.0
  0
LINE
  5
441
330
1F
100
AcDbEntity
  8
0
  6
CONTINUOUS
 62
     7
100
AcDbLine
 10
562.0165939829
 20
107.1594529969
 30
0.0
 11
579.3371020586
 21
97.1594529969
 31
0.0
  0
LINE
  5
442
330
1F
100
AcDbEntity
  8
0
  6
CONTINUOUS
 62
     7
100
AcDbLine
 10
579.3371020586
 20
97.1594529969
 30
0.0
 11
579.3371020586
 21
104.0876562271
 31
0.0
  0
LINE
  5
443
330
1F
100
AcDbEntity
  8
0
  6
CONTINUOUS
 62
     7
100
AcDbLine
 10
579.3371020586
 20
104.0876562271
 30
0.0
 11
568.0165939829
 21
110.623554612
 31
0.0
  0
LINE
  5
444
330
1F
100
AcDbEntity
  8
0
  6
CONTINUOUS
 62
     7
100
AcDbLine
 10
568.0165939829
 20
110.623554612
 30
0.0
 11
568.0165939829
 21
123.6953513817
 31
0.0
  0
LINE
  5
445
330
1F
100
AcDbEntity
  8
0
  6
CONTINUOUS
 62
     7
100
AcDbLine
 10
610.6576101342
 20
123.6953513817
 30
0.0
 11
616.6576101342
 21
127.1594529969
 31
0.0
  0
LINE
  5
446
330
1F
100
AcDbEntity
  8
0
  6
CONTINUOUS
 62
     7
100
AcDbLine
 10
610.6576101342
 20
110.623554612
 30
0.0
 11
610.6576101342
 21
123.6953513817
 31
0.0
  0
LINE
  5
447
330
1F
100
AcDbEntity
  8
0
  6
CONTINUOUS
 62
     7
100
AcDbLine
 10
616.6576101342
 20
114.9437097017
 30
0.0
 11
610.6576101342
 21
110.623554612
 31
0.0
  0
LINE
  5
448
330
1F
100
AcDbEntity
  8
0
  6
CONTINUOUS
 62
     7
100
AcDbLine
 10
616.6576101342
 20
127.1594529969
 30
0.0
 11
616.6576101342
 21
114.9437097017
 31
0.0
  0
LINE
  5
449
330
1F
100
AcDbEntity
  8
0
  6
CONTINUOUS
 62
     7
100
AcDbLine
 10
597.3371020586
 20
140.623554612
 30
0.0
 11
591.3371020586
 21
144.0876562271
 31
0.0
  0
LINE
  5
44A
330
1F
100
AcDbEntity
  8
0
  6
CONTINUOUS
 62
     7
100
AcDbLine
 10
591.3371020586
 20
144.0876562271
 30
0.0
 11
591.3371020586
 21
124.0876562271
 31
0.0
  0
LINE
  5
44B
330
1F
100
AcDbEntity
  8
0
  6
CONTINUOUS
 62
     7
100
AcDbLine
 10
591.3371020586
 20
124.0876562271
 30
0.0
 11
608.6576101342
 21
114.0876562271
 31
0.0
  0
LINE
  5
44C
330
1F
100
AcDbEntity
  8
0
  6
CONTINUOUS
 62
     7
100
AcDbLine
 10
608.6576101342
 20
114.0876562271
 30
0.0
 11
608.6576101342
 21
121.0158594574
 31
0.0
  0
LINE
  5
44D
330
1F
100
AcDbEntity
  8
0
  6
CONTINUOUS
 62
     7
100
AcDbLine
 10
608.6576101342
 20
121.0158594574
 30
0.0
 11
597.3371020586
 21
127.5517578423
 31
0.0
  0
LINE
  5
44E
330
1F
100
AcDbEntity
  8
0
  6
CONTINUOUS
 62
     7
100
AcDbLine
 10
597.3371020586
 20
127.5517578423
 30
0.0
 11
597.3371020586
 21
140.623554612
 31
0.0
  0
LINE
  5
44F
330
1F
100
AcDbEntity
  8
0
  6
CONTINUOUS
 62
     7
100
AcDbLine
 10
562.0165939829
 20
93.3030465363
 30
0.0
 11
562.0165939829
 21
87.2816677284
 31
0.0
  0
LINE
  5
450
330
1F
100
AcDbEntity
  8
0
  6
CONTINUOUS
 62
     7
100
AcDbLine
 10
568.0165939829
 20
89.8154538322
 30
0.0
 11
568.0165939829
 21
89.8389449212
 31
0.0
  0
LINE
  5
451
330
1F
100
AcDbEntity
  8
0
  6
CONTINUOUS
 62
     7
100
AcDbLine
 10
568.0165939829
 20
89.8389449212
 30
0.0
 11
562.0165939829
 21
93.3030465363
 31
0.0
  0
LINE
  5
452
330
1F
100
AcDbEntity
  8
0
  6
CONTINUOUS
 62
     7
100
AcDbLine
 10
552.0165939829
 20
89.8389449212
 30
0.0
 11
558.0165939829
 21
93.3030465363
 31
0.0
  0
LINE
  5
453
330
1F
100
AcDbEntity
  8
0
  6
CONTINUOUS
 62
     7
100
AcDbLine
 10
552.0165939829
 20
84.408603078
 30
0.0
 11
552.0165939829
 21
89.8389449212
 31
0.0
  0
LINE
  5
454
330
1F
100
AcDbEntity
  8
0
  6
CONTINUOUS
 62
     7
100
AcDbLine
 10
558.0165939829
 20
93.3030465363
 30
0.0
 11
558.0165939829
 21
85.6475720845
 31
0.0
  0
LINE
  5
455
330
1F
100
AcDbEntity
  8
0
  6
CONTINUOUS
 62
     7
100
AcDbLine
 10
550.0165950861
 20
87.1594549078
 30
0.0
 11
538.6960859072
 21
93.6953539296
 31
0.0
  0
LINE
  5
456
330
1F
100
AcDbEntity
  8
0
  6
CONTINUOUS
 62
     7
100
AcDbLine
 10
538.6960859072
 20
93.6953539296
 30
0.0
 11
538.6960859072
 21
106.7671481515
 31
0.0
  0
LINE
  5
457
330
1F
100
AcDbEntity
  8
0
  6
CONTINUOUS
 62
     7
100
AcDbLine
 10
538.6960859072
 20
106.7671481515
 30
0.0
 11
532.6960859072
 21
110.2312497666
 31
0.0
  0
LINE
  5
458
330
1F
100
AcDbEntity
  8
0
  6
CONTINUOUS
 62
     7
100
AcDbLine
 10
532.6960859072
 20
110.2312497666
 30
0.0
 11
532.6960859072
 21
96.3685527753
 31
0.0
  0
LINE
  5
459
330
1F
100
AcDbEntity
  8
0
  6
CONTINUOUS
 62
     7
100
AcDbLine
 10
550.0165939829
 20
84.4089191415
 30
0.0
 11
550.0165950861
 21
87.1594549078
 31
0.0
  0
LINE
  5
45A
330
1F
100
AcDbEntity
  8
0
  6
CONTINUOUS
 62
     7
100
AcDbLine
 10
540.6960859072
 20
97.1594568187
 30
0.0
 11
540.6960859072
 21
104.0876575011
 31
0.0
  0
LINE
  5
45B
330
1F
100
AcDbEntity
  8
0
  6
CONTINUOUS
 62
     7
100
AcDbLine
 10
558.016592328
 20
107.1594558632
 30
0.0
 11
540.6960859072
 21
97.1594568187
 31
0.0
  0
LINE
  5
45C
330
1F
100
AcDbEntity
  8
0
  6
CONTINUOUS
 62
     7
100
AcDbLine
 10
558.016592328
 20
127.1594558632
 30
0.0
 11
558.016592328
 21
107.1594558632
 31
0.0
  0
LINE
  5
45D
330
1F
100
AcDbEntity
  8
0
  6
CONTINUOUS
 62
     7
100
AcDbLine
 10
552.0165934312
 20
123.6953523372
 30
0.0
 11
558.016592328
 21
127.1594558632
 31
0.0
  0
LINE
  5
45E
330
1F
100
AcDbEntity
  8
0
  6
CONTINUOUS
 62
     7
100
AcDbLine
 10
552.0165934312
 20
110.6235555675
 30
0.0
 11
552.0165934312
 21
123.6953523372
 31
0.0
  0
LINE
  5
45F
330
1F
100
AcDbEntity
  8
0
  6
CONTINUOUS
 62
     7
100
AcDbLine
 10
540.6960859072
 20
104.0876575011
 30
0.0
 11
552.0165934312
 21
110.6235555675
 31
0.0
  0
LINE
  5
460
330
1F
100
AcDbEntity
  8
0
  6
CONTINUOUS
 62
     7
100
AcDbLine
 10
542.0165950861
 20
107.1594549078
 30
0.0
 11
532.7459079801
 21
112.5118860561
 31
0.0
  0
LINE
  5
461
330
1F
100
AcDbEntity
  8
0
  6
CONTINUOUS
 62
     7
100
AcDbLine
 10
548.0165950861
 20
110.6235565229
 30
0.0
 11
542.0165950861
 21
107.1594549078
 31
0.0
  0
LINE
  5
462
330
1F
100
AcDbEntity
  8
0
  6
CONTINUOUS
 62
     7
100
AcDbLine
 10
535.1472614359
 20
118.0536697701
 30
0.0
 11
548.0165950861
 21
110.6235565229
 31
0.0
  0
LINE
  5
463
330
1F
100
AcDbEntity
  8
0
  6
CONTINUOUS
 62
     7
100
AcDbLine
 10
532.7866658544
 20
112.6029068692
 30
0.0
 11
532.7459079801
 21
112.5118860561
 31
0.0
  0
LINE
  5
464
330
1F
100
AcDbEntity
  8
0
  6
CONTINUOUS
 62
     7
100
AcDbLine
 10
560.0165926975
 20
164.4771498347
 30
0.0
 11
548.6960870104
 21
157.9412504036
 31
0.0
  0
LINE
  5
465
330
1F
100
AcDbEntity
  8
0
  6
CONTINUOUS
 62
     7
100
AcDbLine
 10
571.3371024661
 20
157.9412504725
 30
0.0
 11
560.0165926975
 21
164.4771498347
 31
0.0
  0
LINE
  5
466
330
1F
100
AcDbEntity
  8
0
  6
CONTINUOUS
 62
     7
100
AcDbLine
 10
577.3371023344
 20
161.4053518595
 30
0.0
 11
571.3371024661
 21
157.9412504725
 31
0.0
  0
LINE
  5
467
330
1F
100
AcDbEntity
  8
0
  6
CONTINUOUS
 62
     7
100
AcDbLine
 10
560.016592328
 20
171.4053529742
 30
0.0
 11
577.3371023344
 21
161.4053518595
 31
0.0
  0
LINE
  5
468
330
1F
100
AcDbEntity
  8
0
  6
CONTINUOUS
 62
     7
100
AcDbLine
 10
548.1773415452
 20
164.5699583477
 30
0.0
 11
560.016592328
 21
171.4053529742
 31
0.0
  0
LINE
  5
469
330
1F
100
AcDbEntity
  8
0
  6
CONTINUOUS
 62
     7
100
AcDbLine
 10
548.6960870104
 20
157.9412504036
 30
0.0
 11
547.2053399784
 21
158.8019336038
 31
0.0
  0
LINE
  5
46A
330
1F
100
AcDbEntity
  8
0
  6
CONTINUOUS
 62
     7
100
AcDbLine
 10
597.3371020586
 20
174.4771468775
 30
0.0
 11
591.3371020586
 21
177.9412484927
 31
0.0
  0
LINE
  5
46B
330
1F
100
AcDbEntity
  8
0
  6
CONTINUOUS
 62
     7
100
AcDbLine
 10
591.3371020586
 20
177.9412484927
 30
0.0
 11
591.3371020586
 21
157.9412497666
 31
0.0
  0
LINE
  5
46C
330
1F
100
AcDbEntity
  8
0
  6
CONTINUOUS
 62
     7
100
AcDbLine
 10
591.3371020586
 20
157.9412497666
 30
0.0
 11
608.6576101342
 21
147.9412497666
 31
0.0
  0
LINE
  5
46D
330
1F
100
AcDbEntity
  8
0
  6
CONTINUOUS
 62
     7
100
AcDbLine
 10
608.6576101342
 20
147.9412497666
 30
0.0
 11
608.6576101342
 21
154.8694529969
 31
0.0
  0
LINE
  5
46E
330
1F
100
AcDbEntity
  8
0
  6
CONTINUOUS
 62
     7
100
AcDbLine
 10
608.6576101342
 20
154.8694529969
 30
0.0
 11
597.3371020586
 21
161.4053513817
 31
0.0
  0
LINE
  5
46F
330
1F
100
AcDbEntity
  8
0
  6
CONTINUOUS
 62
     7
100
AcDbLine
 10
597.3371020586
 20
161.4053513817
 30
0.0
 11
597.3371020586
 21
174.4771468775
 31
0.0
  0
LINE
  5
470
330
1F
100
AcDbEntity
  8
0
  6
CONTINUOUS
 62
     7
100
AcDbLine
 10
587.3371020586
 20
157.9412497666
 30
0.0
 11
570.0165939829
 21
147.9412497666
 31
0.0
  0
LINE
  5
471
330
1F
100
AcDbEntity
  8
0
  6
CONTINUOUS
 62
     7
100
AcDbLine
 10
587.3371020586
 20
177.9412484927
 30
0.0
 11
587.3371020586
 21
157.9412497666
 31
0.0
  0
LINE
  5
472
330
1F
100
AcDbEntity
  8
0
  6
CONTINUOUS
 62
     7
100
AcDbLine
 10
581.3371020586
 20
174.4771468775
 30
0.0
 11
587.3371020586
 21
177.9412484927
 31
0.0
  0
LINE
  5
473
330
1F
100
AcDbEntity
  8
0
  6
CONTINUOUS
 62
     7
100
AcDbLine
 10
581.3371020586
 20
161.4053513817
 30
0.0
 11
581.3371020586
 21
174.4771468775
 31
0.0
  0
LINE
  5
474
330
1F
100
AcDbEntity
  8
0
  6
CONTINUOUS
 62
     7
100
AcDbLine
 10
570.0165939829
 20
154.8694529969
 30
0.0
 11
581.3371020586
 21
161.4053513817
 31
0.0
  0
LINE
  5
475
330
1F
100
AcDbEntity
  8
0
  6
CONTINUOUS
 62
     7
100
AcDbLine
 10
570.0165939829
 20
147.9412497666
 30
0.0
 11
570.0165939829
 21
154.8694529969
 31
0.0
  0
LINE
  5
476
330
1F
100
AcDbEntity
  8
0
  6
CONTINUOUS
 62
     7
100
AcDbLine
 10
589.3371020586
 20
188.3335533381
 30
0.0
 11
606.6576101342
 21
178.3335533381
 31
0.0
  0
LINE
  5
477
330
1F
100
AcDbEntity
  8
0
  6
CONTINUOUS
 62
     7
100
AcDbLine
 10
572.0165939829
 20
178.3335533381
 30
0.0
 11
589.3371020586
 21
188.3335533381
 31
0.0
  0
LINE
  5
478
330
1F
100
AcDbEntity
  8
0
  6
CONTINUOUS
 62
     7
100
AcDbLine
 10
578.0165939829
 20
174.8694517229
 30
0.0
 11
572.0165939829
 21
178.3335533381
 31
0.0
  0
LINE
  5
479
330
1F
100
AcDbEntity
  8
0
  6
CONTINUOUS
 62
     7
100
AcDbLine
 10
589.3371020586
 20
181.4053501078
 30
0.0
 11
578.0165939829
 21
174.8694517229
 31
0.0
  0
LINE
  5
47A
330
1F
100
AcDbEntity
  8
0
  6
CONTINUOUS
 62
     7
100
AcDbLine
 10
600.6576101342
 20
174.8694517229
 30
0.0
 11
589.3371020586
 21
181.4053501078
 31
0.0
  0
LINE
  5
47B
330
1F
100
AcDbEntity
  8
0
  6
CONTINUOUS
 62
     7
100
AcDbLine
 10
606.6576101342
 20
178.3335533381
 30
0.0
 11
600.6576101342
 21
174.8694517229
 31
0.0
  0
LINE
  5
47C
330
1F
100
AcDbEntity
  8
0
  6
CONTINUOUS
 62
     7
100
AcDbLine
 10
558.016592328
 20
194.8694545893
 30
0.0
 11
558.016592328
 21
174.8694545893
 31
0.0
  0
LINE
  5
47D
330
1F
100
AcDbEntity
  8
0
  6
CONTINUOUS
 62
     7
100
AcDbLine
 10
552.0165934312
 20
191.4053510632
 30
0.0
 11
558.016592328
 21
194.8694545893
 31
0.0
  0
LINE
  5
47E
330
1F
100
AcDbEntity
  8
0
  6
CONTINUOUS
 62
     7
100
AcDbLine
 10
552.0165934312
 20
178.3335542935
 30
0.0
 11
552.0165934312
 21
191.4053510632
 31
0.0
  0
LINE
  5
47F
330
1F
100
AcDbEntity
  8
0
  6
CONTINUOUS
 62
     7
100
AcDbLine
 10
549.6894732824
 20
176.9899908492
 30
0.0
 11
552.0165934312
 21
178.3335542935
 31
0.0
  0
LINE
  5
480
330
1F
100
AcDbEntity
  8
0
  6
CONTINUOUS
 62
     7
100
AcDbLine
 10
558.016592328
 20
174.8694545893
 30
0.0
 11
548.8842051357
 21
169.5968683855
 31
0.0
  0
LINE
  5
481
330
1F
100
AcDbEntity
  8
0
  6
CONTINUOUS
 62
     7
100
AcDbLine
 10
568.0165939829
 20
191.4053501078
 30
0.0
 11
562.0165939829
 21
194.8694517229
 31
0.0
  0
LINE
  5
482
330
1F
100
AcDbEntity
  8
0
  6
CONTINUOUS
 62
     7
100
AcDbLine
 10
562.0165939829
 20
194.8694517229
 30
0.0
 11
562.0165939829
 21
174.8694517229
 31
0.0
  0
LINE
  5
483
330
1F
100
AcDbEntity
  8
0
  6
CONTINUOUS
 62
     7
100
AcDbLine
 10
562.0165939829
 20
174.8694517229
 30
0.0
 11
579.3371020586
 21
164.8694517229
 31
0.0
  0
LINE
  5
484
330
1F
100
AcDbEntity
  8
0
  6
CONTINUOUS
 62
     7
100
AcDbLine
 10
579.3371020586
 20
164.8694517229
 30
0.0
 11
579.3371020586
 21
171.7976549532
 31
0.0
  0
LINE
  5
485
330
1F
100
AcDbEntity
  8
0
  6
CONTINUOUS
 62
     7
100
AcDbLine
 10
579.3371020586
 20
171.7976549532
 30
0.0
 11
568.0165939829
 21
178.3335533381
 31
0.0
  0
LINE
  5
486
330
1F
100
AcDbEntity
  8
0
  6
CONTINUOUS
 62
     7
100
AcDbLine
 10
568.0165939829
 20
178.3335533381
 30
0.0
 11
568.0165939829
 21
191.4053501078
 31
0.0
  0
LINE
  5
487
330
1F
100
AcDbEntity
  8
0
  6
CONTINUOUS
 62
     7
100
AcDbLine
 10
626.3827121568
 20
123.854063803
 30
0.0
 11
620.6576101342
 21
127.1594529969
 31
0.0
  0
LINE
  5
488
330
1F
100
AcDbEntity
  8
0
  6
CONTINUOUS
 62
     7
100
AcDbLine
 10
620.6576101342
 20
127.1594529969
 30
0.0
 11
620.6576101342
 21
118.333379536
 31
0.0
  0
LINE
  5
489
330
1F
100
AcDbEntity
  8
0
  6
CONTINUOUS
 62
     7
100
AcDbLine
 10
616.6576101342
 20
141.0130465363
 30
0.0
 11
599.3371020586
 21
131.0130465363
 31
0.0
  0
LINE
  5
48A
330
1F
100
AcDbEntity
  8
0
  6
CONTINUOUS
 62
     7
100
AcDbLine
 10
616.6576101342
 20
161.0130465363
 30
0.0
 11
616.6576101342
 21
141.0130465363
 31
0.0
  0
LINE
  5
48B
330
1F
100
AcDbEntity
  8
0
  6
CONTINUOUS
 62
     7
100
AcDbLine
 10
610.6576101342
 20
157.5489449212
 30
0.0
 11
616.6576101342
 21
161.0130465363
 31
0.0
  0
LINE
  5
48C
330
1F
100
AcDbEntity
  8
0
  6
CONTINUOUS
 62
     7
100
AcDbLine
 10
610.6576101342
 20
144.4771481515
 30
0.0
 11
610.6576101342
 21
157.5489449212
 31
0.0
  0
LINE
  5
48D
330
1F
100
AcDbEntity
  8
0
  6
CONTINUOUS
 62
     7
100
AcDbLine
 10
599.3371020586
 20
137.9412497666
 30
0.0
 11
610.6576101342
 21
144.4771481515
 31
0.0
  0
LINE
  5
48E
330
1F
100
AcDbEntity
  8
0
  6
CONTINUOUS
 62
     7
100
AcDbLine
 10
599.3371020586
 20
131.0130465363
 30
0.0
 11
599.3371020586
 21
137.9412497666
 31
0.0
  0
LINE
  5
48F
330
1F
100
AcDbEntity
  8
0
  6
CONTINUOUS
 62
     7
100
AcDbLine
 10
540.6960859072
 20
300.2894529969
 30
0.0
 11
540.6960859072
 21
302.7458231943
 31
0.0
  0
LINE
  5
490
330
1F
100
AcDbEntity
  8
0
  6
CONTINUOUS
 62
     7
100
AcDbLine
 10
549.864552677
 20
305.5828697545
 30
0.0
 11
540.6960859072
 21
300.2894529969
 31
0.0
  0
LINE
  5
491
330
1F
100
AcDbEntity
  8
0
  6
CONTINUOUS
 62
     7
100
AcDbLine
 10
568.0165939829
 20
292.9689410994
 30
0.0
 11
562.0165939829
 21
296.4330427145
 31
0.0
  0
LINE
  5
492
330
1F
100
AcDbEntity
  8
0
  6
CONTINUOUS
 62
     7
100
AcDbLine
 10
562.0165939829
 20
296.4330427145
 30
0.0
 11
562.0165939829
 21
276.4330465363
 31
0.0
  0
LINE
  5
493
330
1F
100
AcDbEntity
  8
0
  6
CONTINUOUS
 62
     7
100
AcDbLine
 10
562.0165939829
 20
276.4330465363
 30
0.0
 11
579.3371020586
 21
266.4330465363
 31
0.0
  0
LINE
  5
494
330
1F
100
AcDbEntity
  8
0
  6
CONTINUOUS
 62
     7
100
AcDbLine
 10
579.3371020586
 20
266.4330465363
 30
0.0
 11
579.3371020586
 21
273.3612497666
 31
0.0
  0
LINE
  5
495
330
1F
100
AcDbEntity
  8
0
  6
CONTINUOUS
 62
     7
100
AcDbLine
 10
579.3371020586
 20
273.3612497666
 30
0.0
 11
568.0165939829
 21
279.8971481515
 31
0.0
  0
LINE
  5
496
330
1F
100
AcDbEntity
  8
0
  6
CONTINUOUS
 62
     7
100
AcDbLine
 10
568.0165939829
 20
279.8971481515
 30
0.0
 11
568.0165939829
 21
292.9689410994
 31
0.0
  0
LINE
  5
497
330
1F
100
AcDbEntity
  8
0
  6
CONTINUOUS
 62
     7
100
AcDbLine
 10
560.0165939829
 20
272.9689449212
 30
0.0
 11
577.3371020586
 21
262.9689449212
 31
0.0
  0
LINE
  5
498
330
1F
100
AcDbEntity
  8
0
  6
CONTINUOUS
 62
     7
100
AcDbLine
 10
542.6960859072
 20
262.9689449212
 30
0.0
 11
560.0165939829
 21
272.9689449212
 31
0.0
  0
LINE
  5
499
330
1F
100
AcDbEntity
  8
0
  6
CONTINUOUS
 62
     7
100
AcDbLine
 10
548.6960859072
 20
259.504843306
 30
0.0
 11
542.6960859072
 21
262.9689449212
 31
0.0
  0
LINE
  5
49A
330
1F
100
AcDbEntity
  8
0
  6
CONTINUOUS
 62
     7
100
AcDbLine
 10
560.0165939829
 20
266.0407416909
 30
0.0
 11
548.6960859072
 21
259.504843306
 31
0.0
  0
LINE
  5
49B
330
1F
100
AcDbEntity
  8
0
  6
CONTINUOUS
 62
     7
100
AcDbLine
 10
571.3371020586
 20
259.504843306
 30
0.0
 11
560.0165939829
 21
266.0407416909
 31
0.0
  0
LINE
  5
49C
330
1F
100
AcDbEntity
  8
0
  6
CONTINUOUS
 62
     7
100
AcDbLine
 10
577.3371020586
 20
262.9689449212
 30
0.0
 11
571.3371020586
 21
259.504843306
 31
0.0
  0
LINE
  5
49D
330
1F
100
AcDbEntity
  8
0
  6
CONTINUOUS
 62
     7
100
AcDbLine
 10
618.6576101342
 20
239.1153513817
 30
0.0
 11
635.9781182099
 21
229.1153513817
 31
0.0
  0
LINE
  5
49E
330
1F
100
AcDbEntity
  8
0
  6
CONTINUOUS
 62
     7
100
AcDbLine
 10
601.3371020586
 20
229.1153513817
 30
0.0
 11
618.6576101342
 21
239.1153513817
 31
0.0
  0
LINE
  5
49F
330
1F
100
AcDbEntity
  8
0
  6
CONTINUOUS
 62
     7
100
AcDbLine
 10
607.3371020586
 20
225.6512497666
 30
0.0
 11
601.3371020586
 21
229.1153513817
 31
0.0
  0
LINE
  5
4A0
330
1F
100
AcDbEntity
  8
0
  6
CONTINUOUS
 62
     7
100
AcDbLine
 10
618.6576101342
 20
232.1871481515
 30
0.0
 11
607.3371020586
 21
225.6512497666
 31
0.0
  0
LINE
  5
4A1
330
1F
100
AcDbEntity
  8
0
  6
CONTINUOUS
 62
     7
100
AcDbLine
 10
629.9781182099
 20
225.6512497666
 30
0.0
 11
618.6576101342
 21
232.1871481515
 31
0.0
  0
LINE
  5
4A2
330
1F
100
AcDbEntity
  8
0
  6
CONTINUOUS
 62
     7
100
AcDbLine
 10
635.9781182099
 20
229.1153513817
 30
0.0
 11
629.9781182099
 21
225.6512497666
 31
0.0
  0
LINE
  5
4A3
330
1F
100
AcDbEntity
  8
0
  6
CONTINUOUS
 62
     7
100
AcDbLine
 10
630.6576101342
 20
246.043554612
 30
0.0
 11
638.6276499896
 21
250.645059268
 31
0.0
  0
LINE
  5
4A4
330
1F
100
AcDbEntity
  8
0
  6
CONTINUOUS
 62
     7
100
AcDbLine
 10
636.6576101342
 20
242.5794529969
 30
0.0
 11
630.6576101342
 21
246.043554612
 31
0.0
  0
LINE
  5
4A5
330
1F
100
AcDbEntity
  8
0
  6
CONTINUOUS
 62
     7
100
AcDbLine
 10
641.728987264
 20
245.5074139479
 30
0.0
 11
636.6576101342
 21
242.5794529969
 31
0.0
  0
LINE
  5
4A6
330
1F
100
AcDbEntity
  8
0
  6
CONTINUOUS
 62
     7
100
AcDbLine
 10
616.6576101342
 20
242.5794529969
 30
0.0
 11
599.3371020586
 21
232.5794529969
 31
0.0
  0
LINE
  5
4A7
330
1F
100
AcDbEntity
  8
0
  6
CONTINUOUS
 62
     7
100
AcDbLine
 10
616.6576101342
 20
262.579450449
 30
0.0
 11
616.6576101342
 21
242.5794529969
 31
0.0
  0
LINE
  5
4A8
330
1F
100
AcDbEntity
  8
0
  6
CONTINUOUS
 62
     7
100
AcDbLine
 10
610.6576101342
 20
259.1153488338
 30
0.0
 11
616.6576101342
 21
262.579450449
 31
0.0
  0
LINE
  5
4A9
330
1F
100
AcDbEntity
  8
0
  6
CONTINUOUS
 62
     7
100
AcDbLine
 10
610.6576101342
 20
246.0435520641
 30
0.0
 11
610.6576101342
 21
259.1153488338
 31
0.0
  0
LINE
  5
4AA
330
1F
100
AcDbEntity
  8
0
  6
CONTINUOUS
 62
     7
100
AcDbLine
 10
599.3371020586
 20
239.5076561707
 30
0.0
 11
610.6576101342
 21
246.0435520641
 31
0.0
  0
LINE
  5
4AB
330
1F
100
AcDbEntity
  8
0
  6
CONTINUOUS
 62
     7
100
AcDbLine
 10
599.3371020586
 20
232.5794529969
 30
0.0
 11
599.3371020586
 21
239.5076561707
 31
0.0
  0
LINE
  5
4AC
330
1F
100
AcDbEntity
  8
0
  6
CONTINUOUS
 62
     7
100
AcDbLine
 10
597.3371020586
 20
242.1871456036
 30
0.0
 11
591.3371020586
 21
245.6512472187
 31
0.0
  0
LINE
  5
4AD
330
1F
100
AcDbEntity
  8
0
  6
CONTINUOUS
 62
     7
100
AcDbLine
 10
591.3371020586
 20
245.6512472187
 30
0.0
 11
591.3371020586
 21
225.6512497666
 31
0.0
  0
LINE
  5
4AE
330
1F
100
AcDbEntity
  8
0
  6
CONTINUOUS
 62
     7
100
AcDbLine
 10
591.3371020586
 20
225.6512497666
 30
0.0
 11
608.6576101342
 21
215.6512497666
 31
0.0
  0
LINE
  5
4AF
330
1F
100
AcDbEntity
  8
0
  6
CONTINUOUS
 62
     7
100
AcDbLine
 10
608.6576101342
 20
215.6512497666
 30
0.0
 11
608.6576101342
 21
222.5794529969
 31
0.0
  0
LINE
  5
4B0
330
1F
100
AcDbEntity
  8
0
  6
CONTINUOUS
 62
     7
100
AcDbLine
 10
608.6576101342
 20
222.5794529969
 30
0.0
 11
597.3371020586
 21
229.1153513817
 31
0.0
  0
LINE
  5
4B1
330
1F
100
AcDbEntity
  8
0
  6
CONTINUOUS
 62
     7
100
AcDbLine
 10
597.3371020586
 20
229.1153513817
 30
0.0
 11
597.3371020586
 21
242.1871456036
 31
0.0
  0
LINE
  5
4B2
330
1F
100
AcDbEntity
  8
0
  6
CONTINUOUS
 62
     7
100
AcDbLine
 10
50.0218630495
 20
177.9412497666
 30
0.0
 11
50.0218630495
 21
163.2707109573
 31
0.0
  0
LINE
  5
4B3
330
1F
100
AcDbEntity
  8
0
  6
CONTINUOUS
 62
     7
100
AcDbLine
 10
46.7610024201
 20
176.0585910044
 30
0.0
 11
50.0218630495
 21
177.9412497666
 31
0.0
  0
LINE
  5
4B4
330
1F
100
AcDbEntity
  8
0
  6
CONTINUOUS
 62
     7
100
AcDbLine
 10
63.3423711252
 20
141.0130465363
 30
0.0
 11
69.3423711252
 21
144.4771481515
 31
0.0
  0
LINE
  5
4B5
330
1F
100
AcDbEntity
  8
0
  6
CONTINUOUS
 62
     7
100
AcDbLine
 10
69.3423711252
 20
144.4771481515
 30
0.0
 11
53.767451434
 21
153.4693322278
 31
0.0
  0
LINE
  5
4B6
330
1F
100
AcDbEntity
  8
0
  6
CONTINUOUS
 62
     7
100
AcDbLine
 10
58.7403152393
 20
143.6700447409
 30
0.0
 11
63.3423711252
 21
141.0130465363
 31
0.0
  0
LINE
  5
4B7
330
1F
100
AcDbEntity
  8
0
  6
CONTINUOUS
 62
     7
100
AcDbLine
 10
52.0218630495
 20
181.4053513817
 30
0.0
 11
63.3423711252
 21
174.8694529969
 31
0.0
  0
LINE
  5
4B8
330
1F
100
AcDbEntity
  8
0
  6
CONTINUOUS
 62
     7
100
AcDbLine
 10
63.3423711252
 20
174.8694529969
 30
0.0
 11
69.3423711252
 21
178.333554612
 31
0.0
  0
LINE
  5
4B9
330
1F
100
AcDbEntity
  8
0
  6
CONTINUOUS
 62
     7
100
AcDbLine
 10
69.3423711252
 20
178.333554612
 30
0.0
 11
52.0218630495
 21
188.333554612
 31
0.0
  0
LINE
  5
4BA
330
1F
100
AcDbEntity
  8
0
  6
CONTINUOUS
 62
     7
100
AcDbLine
 10
52.0218630495
 20
188.333554612
 30
0.0
 11
45.5292112597
 21
184.5850203534
 31
0.0
  0
LINE
  5
4BB
330
1F
100
AcDbEntity
  8
0
  6
CONTINUOUS
 62
     7
100
AcDbLine
 10
46.3903942964
 20
178.1540213812
 30
0.0
 11
52.0218630495
 21
181.4053513817
 31
0.0
  0
LINE
  5
4BC
330
1F
100
AcDbEntity
  8
0
  6
CONTINUOUS
 62
     7
100
AcDbLine
 10
102.6628792009
 20
103.4303299898
 30
0.0
 11
102.6628792009
 21
106.7671481515
 31
0.0
  0
LINE
  5
4BD
330
1F
100
AcDbEntity
  8
0
  6
CONTINUOUS
 62
     7
100
AcDbLine
 10
108.6628792009
 20
110.2312497666
 30
0.0
 11
108.6628792009
 21
100.4731823438
 31
0.0
  0
LINE
  5
4BE
330
1F
100
AcDbEntity
  8
0
  6
CONTINUOUS
 62
     7
100
AcDbLine
 10
102.6628792009
 20
106.7671481515
 30
0.0
 11
108.6628792009
 21
110.2312497666
 31
0.0
  0
LINE
  5
4BF
330
1F
100
AcDbEntity
  8
0
  6
CONTINUOUS
 62
     7
100
AcDbLine
 10
139.9833872765
 20
130.6207416909
 30
0.0
 11
151.3038953522
 21
124.084843306
 31
0.0
  0
LINE
  5
4C0
330
1F
100
AcDbEntity
  8
0
  6
CONTINUOUS
 62
     7
100
AcDbLine
 10
151.3038953522
 20
124.084843306
 30
0.0
 11
157.3038953522
 21
127.5489449212
 31
0.0
  0
LINE
  5
4C1
330
1F
100
AcDbEntity
  8
0
  6
CONTINUOUS
 62
     7
100
AcDbLine
 10
157.3038953522
 20
127.5489449212
 30
0.0
 11
139.9833872765
 21
137.5489449212
 31
0.0
  0
LINE
  5
4C2
330
1F
100
AcDbEntity
  8
0
  6
CONTINUOUS
 62
     7
100
AcDbLine
 10
139.9833872765
 20
137.5489449212
 30
0.0
 11
122.6628792009
 21
127.5489449212
 31
0.0
  0
LINE
  5
4C3
330
1F
100
AcDbEntity
  8
0
  6
CONTINUOUS
 62
     7
100
AcDbLine
 10
122.6628792009
 20
127.5489449212
 30
0.0
 11
128.6628792009
 21
124.084843306
 31
0.0
  0
LINE
  5
4C4
330
1F
100
AcDbEntity
  8
0
  6
CONTINUOUS
 62
     7
100
AcDbLine
 10
128.6628792009
 20
124.084843306
 30
0.0
 11
139.9833872765
 21
130.6207416909
 31
0.0
  0
LINE
  5
4C5
330
1F
100
AcDbEntity
  8
0
  6
CONTINUOUS
 62
     7
100
AcDbLine
 10
147.9833872765
 20
84.408603078
 30
0.0
 11
147.9833872765
 21
89.8389449212
 31
0.0
  0
LINE
  5
4C6
330
1F
100
AcDbEntity
  8
0
  6
CONTINUOUS
 62
     7
100
AcDbLine
 10
147.9833872765
 20
89.8389449212
 30
0.0
 11
141.9833872765
 21
93.3030465363
 31
0.0
  0
LINE
  5
4C7
330
1F
100
AcDbEntity
  8
0
  6
CONTINUOUS
 62
     7
100
AcDbLine
 10
141.9833872765
 20
93.3030465363
 30
0.0
 11
141.9833872765
 21
85.6475720845
 31
0.0
  0
LINE
  5
4C8
330
1F
100
AcDbEntity
  8
0
  6
CONTINUOUS
 62
     7
100
AcDbLine
 10
164.8527198235
 20
118.0536697701
 30
0.0
 11
151.9833861733
 21
110.6235565229
 31
0.0
  0
LINE
  5
4C9
330
1F
100
AcDbEntity
  8
0
  6
CONTINUOUS
 62
     7
100
AcDbLine
 10
151.9833861733
 20
110.6235565229
 30
0.0
 11
157.9833861733
 21
107.1594549078
 31
0.0
  0
LINE
  5
4CA
330
1F
100
AcDbEntity
  8
0
  6
CONTINUOUS
 62
     7
100
AcDbLine
 10
157.9833861733
 20
107.1594549078
 30
0.0
 11
167.2540732793
 21
112.5118860561
 31
0.0
  0
LINE
  5
4CB
330
1F
100
AcDbEntity
  8
0
  6
CONTINUOUS
 62
     7
100
AcDbLine
 10
167.2540732793
 20
112.5118860561
 30
0.0
 11
167.213315405
 21
112.6029068692
 31
0.0
  0
LINE
  5
4CC
330
1F
100
AcDbEntity
  8
0
  6
CONTINUOUS
 62
     7
100
AcDbLine
 10
154.4907204963
 20
150.5435598143
 30
0.0
 11
149.9833889522
 21
147.9412497666
 31
0.0
  0
LINE
  5
4CD
330
1F
100
AcDbEntity
  8
0
  6
CONTINUOUS
 62
     7
100
AcDbLine
 10
149.9833861733
 20
154.8694536338
 30
0.0
 11
153.1882191189
 21
156.7197647977
 31
0.0
  0
LINE
  5
4CE
330
1F
100
AcDbEntity
  8
0
  6
CONTINUOUS
 62
     7
100
AcDbLine
 10
149.9833889522
 20
147.9412497666
 30
0.0
 11
149.9833861733
 21
154.8694536338
 31
0.0
  0
LINE
  5
4CF
330
1F
100
AcDbEntity
  8
0
  6
CONTINUOUS
 62
     7
100
AcDbLine
 10
89.3423711252
 20
144.4771481515
 30
0.0
 11
89.3423711252
 21
157.5489449212
 31
0.0
  0
LINE
  5
4D0
330
1F
100
AcDbEntity
  8
0
  6
CONTINUOUS
 62
     7
100
AcDbLine
 10
89.3423711252
 20
157.5489449212
 30
0.0
 11
83.3423711252
 21
161.0130465363
 31
0.0
  0
LINE
  5
4D1
330
1F
100
AcDbEntity
  8
0
  6
CONTINUOUS
 62
     7
100
AcDbLine
 10
83.3423711252
 20
161.0130465363
 30
0.0
 11
83.3423711252
 21
141.0130465363
 31
0.0
  0
LINE
  5
4D2
330
1F
100
AcDbEntity
  8
0
  6
CONTINUOUS
 62
     7
100
AcDbLine
 10
83.3423711252
 20
141.0130465363
 30
0.0
 11
100.6628792009
 21
131.0130465363
 31
0.0
  0
LINE
  5
4D3
330
1F
100
AcDbEntity
  8
0
  6
CONTINUOUS
 62
     7
100
AcDbLine
 10
100.6628792009
 20
131.0130465363
 30
0.0
 11
100.6628792009
 21
137.9412497666
 31
0.0
  0
LINE
  5
4D4
330
1F
100
AcDbEntity
  8
0
  6
CONTINUOUS
 62
     7
100
AcDbLine
 10
100.6628792009
 20
137.9412497666
 30
0.0
 11
89.3423711252
 21
144.4771481515
 31
0.0
  0
LINE
  5
4D5
330
1F
100
AcDbEntity
  8
0
  6
CONTINUOUS
 62
     7
100
AcDbLine
 10
46.0270288666
 20
209.4912376363
 30
0.0
 11
50.0218630495
 21
211.7976562271
 31
0.0
  0
LINE
  5
4D6
330
1F
100
AcDbEntity
  8
0
  6
CONTINUOUS
 62
     7
100
AcDbLine
 10
50.0218630495
 20
191.7976562271
 30
0.0
 11
45.1753554123
 21
188.9995237382
 31
0.0
  0
LINE
  5
4D7
330
1F
100
AcDbEntity
  8
0
  6
CONTINUOUS
 62
     7
100
AcDbLine
 10
50.0218630495
 20
211.7976562271
 30
0.0
 11
50.0218630495
 21
191.7976562271
 31
0.0
  0
LINE
  5
4D8
330
1F
100
AcDbEntity
  8
0
  6
CONTINUOUS
 62
     7
100
AcDbLine
 10
81.3423711252
 20
198.3307416909
 30
0.0
 11
92.6628792009
 21
191.794843306
 31
0.0
  0
LINE
  5
4D9
330
1F
100
AcDbEntity
  8
0
  6
CONTINUOUS
 62
     7
100
AcDbLine
 10
92.6628792009
 20
191.794843306
 30
0.0
 11
98.6628792009
 21
195.2589449212
 31
0.0
  0
LINE
  5
4DA
330
1F
100
AcDbEntity
  8
0
  6
CONTINUOUS
 62
     7
100
AcDbLine
 10
98.6628792009
 20
195.2589449212
 30
0.0
 11
81.3423711252
 21
205.2589449212
 31
0.0
  0
LINE
  5
4DB
330
1F
100
AcDbEntity
  8
0
  6
CONTINUOUS
 62
     7
100
AcDbLine
 10
81.3423711252
 20
205.2589449212
 30
0.0
 11
64.0218630495
 21
195.2589449212
 31
0.0
  0
LINE
  5
4DC
330
1F
100
AcDbEntity
  8
0
  6
CONTINUOUS
 62
     7
100
AcDbLine
 10
64.0218630495
 20
195.2589449212
 30
0.0
 11
70.0218630495
 21
191.794843306
 31
0.0
  0
LINE
  5
4DD
330
1F
100
AcDbEntity
  8
0
  6
CONTINUOUS
 62
     7
100
AcDbLine
 10
70.0218630495
 20
191.794843306
 30
0.0
 11
81.3423711252
 21
198.3307416909
 31
0.0
  0
LINE
  5
4DE
330
1F
100
AcDbEntity
  8
0
  6
CONTINUOUS
 62
     7
100
AcDbLine
 10
91.3423711252
 20
249.5076536793
 30
0.0
 11
91.3423711252
 21
256.4358569095
 31
0.0
  0
LINE
  5
4DF
330
1F
100
AcDbEntity
  8
0
  6
CONTINUOUS
 62
     7
100
AcDbLine
 10
108.6628792009
 20
259.5076536793
 30
0.0
 11
91.3423711252
 21
249.5076536793
 31
0.0
  0
LINE
  5
4E0
330
1F
100
AcDbEntity
  8
0
  6
CONTINUOUS
 62
     7
100
AcDbLine
 10
108.6628792009
 20
279.5076536793
 30
0.0
 11
108.6628792009
 21
259.5076536793
 31
0.0
  0
LINE
  5
4E1
330
1F
100
AcDbEntity
  8
0
  6
CONTINUOUS
 62
     7
100
AcDbLine
 10
102.6628792009
 20
276.0435520641
 30
0.0
 11
108.6628792009
 21
279.5076536793
 31
0.0
  0
LINE
  5
4E2
330
1F
100
AcDbEntity
  8
0
  6
CONTINUOUS
 62
     7
100
AcDbLine
 10
102.6628792009
 20
262.9717552944
 30
0.0
 11
102.6628792009
 21
276.0435520641
 31
0.0
  0
LINE
  5
4E3
330
1F
100
AcDbEntity
  8
0
  6
CONTINUOUS
 62
     7
100
AcDbLine
 10
91.3423711252
 20
256.4358569095
 30
0.0
 11
102.6628792009
 21
262.9717552944
 31
0.0
  0
LINE
  5
4E4
330
1F
100
AcDbEntity
  8
0
  6
CONTINUOUS
 62
     7
100
AcDbLine
 10
139.9833872765
 20
266.0407416909
 30
0.0
 11
151.3038953522
 21
259.504843306
 31
0.0
  0
LINE
  5
4E5
330
1F
100
AcDbEntity
  8
0
  6
CONTINUOUS
 62
     7
100
AcDbLine
 10
151.3038953522
 20
259.504843306
 30
0.0
 11
157.3038953522
 21
262.9689449212
 31
0.0
  0
LINE
  5
4E6
330
1F
100
AcDbEntity
  8
0
  6
CONTINUOUS
 62
     7
100
AcDbLine
 10
157.3038953522
 20
262.9689449212
 30
0.0
 11
139.9833872765
 21
272.9689449212
 31
0.0
  0
LINE
  5
4E7
330
1F
100
AcDbEntity
  8
0
  6
CONTINUOUS
 62
     7
100
AcDbLine
 10
139.9833872765
 20
272.9689449212
 30
0.0
 11
122.6628792009
 21
262.9689449212
 31
0.0
  0
LINE
  5
4E8
330
1F
100
AcDbEntity
  8
0
  6
CONTINUOUS
 62
     7
100
AcDbLine
 10
122.6628792009
 20
262.9689449212
 30
0.0
 11
128.6628792009
 21
259.504843306
 31
0.0
  0
LINE
  5
4E9
330
1F
100
AcDbEntity
  8
0
  6
CONTINUOUS
 62
     7
100
AcDbLine
 10
128.6628792009
 20
259.504843306
 30
0.0
 11
139.9833872765
 21
266.0407416909
 31
0.0
  0
LINE
  5
4EA
330
1F
100
AcDbEntity
  8
0
  6
CONTINUOUS
 62
     7
100
AcDbLine
 10
152.8815850706
 20
231.6685746872
 30
0.0
 11
139.9833889314
 21
239.1153517002
 31
0.0
  0
LINE
  5
4EB
330
1F
100
AcDbEntity
  8
0
  6
CONTINUOUS
 62
     7
100
AcDbLine
 10
139.9833889314
 20
239.1153517002
 30
0.0
 11
122.6628794767
 21
229.115350904
 31
0.0
  0
LINE
  5
4EC
330
1F
100
AcDbEntity
  8
0
  6
CONTINUOUS
 62
     7
100
AcDbLine
 10
122.6628794767
 20
229.115350904
 30
0.0
 11
128.662879345
 21
225.651249517
 31
0.0
  0
LINE
  5
4ED
330
1F
100
AcDbEntity
  8
0
  6
CONTINUOUS
 62
     7
100
AcDbLine
 10
128.662879345
 20
225.651249517
 30
0.0
 11
139.9833885619
 21
232.1871485608
 31
0.0
  0
LINE
  5
4EE
330
1F
100
AcDbEntity
  8
0
  6
CONTINUOUS
 62
     7
100
AcDbLine
 10
139.9833885619
 20
232.1871485608
 30
0.0
 11
151.303894249
 21
225.6512491296
 31
0.0
  0
LINE
  5
4EF
330
1F
100
AcDbEntity
  8
0
  6
CONTINUOUS
 62
     7
100
AcDbLine
 10
151.303894249
 20
225.6512491296
 30
0.0
 11
151.9112977174
 21
226.0019336856
 31
0.0
  0
LINE
  5
4F0
330
1F
100
AcDbEntity
  8
0
  6
CONTINUOUS
 62
     7
100
AcDbLine
 10
91.3423711252
 20
215.6512497666
 30
0.0
 11
91.3423711252
 21
222.5794529969
 31
0.0
  0
LINE
  5
4F1
330
1F
100
AcDbEntity
  8
0
  6
CONTINUOUS
 62
     7
100
AcDbLine
 10
108.6628792009
 20
225.6512497666
 30
0.0
 11
91.3423711252
 21
215.6512497666
 31
0.0
  0
LINE
  5
4F2
330
1F
100
AcDbEntity
  8
0
  6
CONTINUOUS
 62
     7
100
AcDbLine
 10
108.6628792009
 20
245.6512472187
 30
0.0
 11
108.6628792009
 21
225.6512497666
 31
0.0
  0
LINE
  5
4F3
330
1F
100
AcDbEntity
  8
0
  6
CONTINUOUS
 62
     7
100
AcDbLine
 10
102.6628792009
 20
242.1871456036
 30
0.0
 11
108.6628792009
 21
245.6512472187
 31
0.0
  0
LINE
  5
4F4
330
1F
100
AcDbEntity
  8
0
  6
CONTINUOUS
 62
     7
100
AcDbLine
 10
102.6628792009
 20
229.1153513817
 30
0.0
 11
102.6628792009
 21
242.1871456036
 31
0.0
  0
LINE
  5
4F5
330
1F
100
AcDbEntity
  8
0
  6
CONTINUOUS
 62
     7
100
AcDbLine
 10
91.3423711252
 20
222.5794529969
 30
0.0
 11
102.6628792009
 21
229.1153513817
 31
0.0
  0
LINE
  5
4F6
330
1F
100
AcDbEntity
  8
0
  6
CONTINUOUS
 62
     7
100
AcDbLine
 10
89.3423711252
 20
246.0435520641
 30
0.0
 11
89.3423711252
 21
259.1153488338
 31
0.0
  0
LINE
  5
4F7
330
1F
100
AcDbEntity
  8
0
  6
CONTINUOUS
 62
     7
100
AcDbLine
 10
89.3423711252
 20
259.1153488338
 30
0.0
 11
83.3423711252
 21
262.579450449
 31
0.0
  0
LINE
  5
4F8
330
1F
100
AcDbEntity
  8
0
  6
CONTINUOUS
 62
     7
100
AcDbLine
 10
83.3423711252
 20
262.579450449
 30
0.0
 11
83.3423711252
 21
242.5794529969
 31
0.0
  0
LINE
  5
4F9
330
1F
100
AcDbEntity
  8
0
  6
CONTINUOUS
 62
     7
100
AcDbLine
 10
83.3423711252
 20
242.5794529969
 30
0.0
 11
100.6628792009
 21
232.5794529969
 31
0.0
  0
LINE
  5
4FA
330
1F
100
AcDbEntity
  8
0
  6
CONTINUOUS
 62
     7
100
AcDbLine
 10
100.6628792009
 20
232.5794529969
 30
0.0
 11
100.6628792009
 21
239.5076561707
 31
0.0
  0
LINE
  5
4FB
330
1F
100
AcDbEntity
  8
0
  6
CONTINUOUS
 62
     7
100
AcDbLine
 10
100.6628792009
 20
239.5076561707
 30
0.0
 11
89.3423711252
 21
246.0435520641
 31
0.0
  0
LINE
  5
4FC
330
1F
100
AcDbEntity
  8
0
  6
CONTINUOUS
 62
     7
100
AcDbLine
 10
81.3423711252
 20
232.1871481515
 30
0.0
 11
92.6628792009
 21
225.6512497666
 31
0.0
  0
LINE
  5
4FD
330
1F
100
AcDbEntity
  8
0
  6
CONTINUOUS
 62
     7
100
AcDbLine
 10
92.6628792009
 20
225.6512497666
 30
0.0
 11
98.6628792009
 21
229.1153513817
 31
0.0
  0
LINE
  5
4FE
330
1F
100
AcDbEntity
  8
0
  6
CONTINUOUS
 62
     7
100
AcDbLine
 10
98.6628792009
 20
229.1153513817
 30
0.0
 11
81.3423711252
 21
239.1153513817
 31
0.0
  0
LINE
  5
4FF
330
1F
100
AcDbEntity
  8
0
  6
CONTINUOUS
 62
     7
100
AcDbLine
 10
81.3423711252
 20
239.1153513817
 30
0.0
 11
64.0218630495
 21
229.1153513817
 31
0.0
  0
LINE
  5
500
330
1F
100
AcDbEntity
  8
0
  6
CONTINUOUS
 62
     7
100
AcDbLine
 10
64.0218630495
 20
229.1153513817
 30
0.0
 11
70.0218630495
 21
225.6512497666
 31
0.0
  0
LINE
  5
501
330
1F
100
AcDbEntity
  8
0
  6
CONTINUOUS
 62
     7
100
AcDbLine
 10
70.0218630495
 20
225.6512497666
 30
0.0
 11
81.3423711252
 21
232.1871481515
 31
0.0
  0
LINE
  5
502
330
1F
100
AcDbEntity
  8
0
  6
CONTINUOUS
 62
     7
100
AcDbLine
 10
156.871123854
 20
248.8654906407
 30
0.0
 11
151.9833861733
 21
246.043553975
 31
0.0
  0
LINE
  5
503
330
1F
100
AcDbEntity
  8
0
  6
CONTINUOUS
 62
     7
100
AcDbLine
 10
151.9833861733
 20
246.043553975
 30
0.0
 11
155.5724882119
 21
243.9713849469
 31
0.0
  0
LINE
  5
504
330
1F
100
AcDbEntity
  8
0
  6
CONTINUOUS
 62
     7
100
AcDbLine
 10
149.9833861733
 20
121.0158613683
 30
0.0
 11
161.2055919761
 21
127.4950023616
 31
0.0
  0
LINE
  5
505
330
1F
100
AcDbEntity
  8
0
  6
CONTINUOUS
 62
     7
100
AcDbLine
 10
149.9833861733
 20
114.0876581381
 30
0.0
 11
149.9833861733
 21
121.0158613683
 31
0.0
  0
LINE
  5
506
330
1F
100
AcDbEntity
  8
0
  6
CONTINUOUS
 62
     7
100
AcDbLine
 10
163.3401612388
 20
121.7991958176
 30
0.0
 11
149.9833861733
 21
114.0876581381
 31
0.0
  0
LINE
  5
507
330
1F
100
AcDbEntity
  8
0
  6
CONTINUOUS
 62
     7
100
AcDbLine
 10
120.6628792009
 20
198.7230465363
 30
0.0
 11
120.6628792009
 21
205.6512497666
 31
0.0
  0
LINE
  5
508
330
1F
100
AcDbEntity
  8
0
  6
CONTINUOUS
 62
     7
100
AcDbLine
 10
137.9833872765
 20
208.7230465363
 30
0.0
 11
120.6628792009
 21
198.7230465363
 31
0.0
  0
LINE
  5
509
330
1F
100
AcDbEntity
  8
0
  6
CONTINUOUS
 62
     7
100
AcDbLine
 10
137.9833872765
 20
228.7230439884
 30
0.0
 11
137.9833872765
 21
208.7230465363
 31
0.0
  0
LINE
  5
50A
330
1F
100
AcDbEntity
  8
0
  6
CONTINUOUS
 62
     7
100
AcDbLine
 10
131.9833872765
 20
225.2589423733
 30
0.0
 11
137.9833872765
 21
228.7230439884
 31
0.0
  0
LINE
  5
50B
330
1F
100
AcDbEntity
  8
0
  6
CONTINUOUS
 62
     7
100
AcDbLine
 10
131.9833872765
 20
212.1871481515
 30
0.0
 11
131.9833872765
 21
225.2589423733
 31
0.0
  0
LINE
  5
50C
330
1F
100
AcDbEntity
  8
0
  6
CONTINUOUS
 62
     7
100
AcDbLine
 10
120.6628792009
 20
205.6512497666
 30
0.0
 11
131.9833872765
 21
212.1871481515
 31
0.0
  0
LINE
  5
50D
330
1F
100
AcDbEntity
  8
0
  6
CONTINUOUS
 62
     7
100
AcDbLine
 10
118.6628792009
 20
229.1153513817
 30
0.0
 11
118.6628792009
 21
242.1871456036
 31
0.0
  0
LINE
  5
50E
330
1F
100
AcDbEntity
  8
0
  6
CONTINUOUS
 62
     7
100
AcDbLine
 10
118.6628792009
 20
242.1871456036
 30
0.0
 11
112.6628792009
 21
245.6512472187
 31
0.0
  0
LINE
  5
50F
330
1F
100
AcDbEntity
  8
0
  6
CONTINUOUS
 62
     7
100
AcDbLine
 10
112.6628792009
 20
245.6512472187
 30
0.0
 11
112.6628792009
 21
225.6512497666
 31
0.0
  0
LINE
  5
510
330
1F
100
AcDbEntity
  8
0
  6
CONTINUOUS
 62
     7
100
AcDbLine
 10
112.6628792009
 20
225.6512497666
 30
0.0
 11
129.9833872765
 21
215.6512497666
 31
0.0
  0
LINE
  5
511
330
1F
100
AcDbEntity
  8
0
  6
CONTINUOUS
 62
     7
100
AcDbLine
 10
129.9833872765
 20
215.6512497666
 30
0.0
 11
129.9833872765
 21
222.5794529969
 31
0.0
  0
LINE
  5
512
330
1F
100
AcDbEntity
  8
0
  6
CONTINUOUS
 62
     7
100
AcDbLine
 10
129.9833872765
 20
222.5794529969
 30
0.0
 11
118.6628792009
 21
229.1153513817
 31
0.0
  0
LINE
  5
513
330
1F
100
AcDbEntity
  8
0
  6
CONTINUOUS
 62
     7
100
AcDbLine
 10
149.5558450116
 20
199.732283871
 30
0.0
 11
139.9833872765
 21
205.2589449212
 31
0.0
  0
LINE
  5
514
330
1F
100
AcDbEntity
  8
0
  6
CONTINUOUS
 62
     7
100
AcDbLine
 10
139.9833872765
 20
205.2589449212
 30
0.0
 11
122.6628792009
 21
195.2589449212
 31
0.0
  0
LINE
  5
515
330
1F
100
AcDbEntity
  8
0
  6
CONTINUOUS
 62
     7
100
AcDbLine
 10
122.6628792009
 20
195.2589449212
 30
0.0
 11
128.6628792009
 21
191.794843306
 31
0.0
  0
LINE
  5
516
330
1F
100
AcDbEntity
  8
0
  6
CONTINUOUS
 62
     7
100
AcDbLine
 10
128.6628792009
 20
191.794843306
 30
0.0
 11
139.9833872765
 21
198.3307416909
 31
0.0
  0
LINE
  5
517
330
1F
100
AcDbEntity
  8
0
  6
CONTINUOUS
 62
     7
100
AcDbLine
 10
139.9833872765
 20
198.3307416909
 30
0.0
 11
149.5117388142
 21
192.8295453657
 31
0.0
  0
LINE
  5
518
330
1F
100
AcDbEntity
  8
0
  6
CONTINUOUS
 62
     7
100
AcDbLine
 10
120.6628792009
 20
232.579450449
 30
0.0
 11
120.6628792009
 21
239.5076536793
 31
0.0
  0
LINE
  5
519
330
1F
100
AcDbEntity
  8
0
  6
CONTINUOUS
 62
     7
100
AcDbLine
 10
137.9833872765
 20
242.579450449
 30
0.0
 11
120.6628792009
 21
232.579450449
 31
0.0
  0
LINE
  5
51A
330
1F
100
AcDbEntity
  8
0
  6
CONTINUOUS
 62
     7
100
AcDbLine
 10
137.9833872765
 20
262.579450449
 30
0.0
 11
137.9833872765
 21
242.579450449
 31
0.0
  0
LINE
  5
51B
330
1F
100
AcDbEntity
  8
0
  6
CONTINUOUS
 62
     7
100
AcDbLine
 10
131.9833872765
 20
259.1153488338
 30
0.0
 11
137.9833872765
 21
262.579450449
 31
0.0
  0
LINE
  5
51C
330
1F
100
AcDbEntity
  8
0
  6
CONTINUOUS
 62
     7
100
AcDbLine
 10
131.9833872765
 20
246.0435520641
 30
0.0
 11
131.9833872765
 21
259.1153488338
 31
0.0
  0
LINE
  5
51D
330
1F
100
AcDbEntity
  8
0
  6
CONTINUOUS
 62
     7
100
AcDbLine
 10
120.6628792009
 20
239.5076536793
 30
0.0
 11
131.9833872765
 21
246.0435520641
 31
0.0
  0
LINE
  5
51E
330
1F
100
AcDbEntity
  8
0
  6
CONTINUOUS
 62
     7
100
AcDbLine
 10
110.6628792009
 20
147.5489449212
 30
0.0
 11
121.9833872765
 21
141.0130465363
 31
0.0
  0
LINE
  5
51F
330
1F
100
AcDbEntity
  8
0
  6
CONTINUOUS
 62
     7
100
AcDbLine
 10
121.9833872765
 20
141.0130465363
 30
0.0
 11
127.9833872765
 21
144.4771481515
 31
0.0
  0
LINE
  5
520
330
1F
100
AcDbEntity
  8
0
  6
CONTINUOUS
 62
     7
100
AcDbLine
 10
127.9833872765
 20
144.4771481515
 30
0.0
 11
110.6628792009
 21
154.4771481515
 31
0.0
  0
LINE
  5
521
330
1F
100
AcDbEntity
  8
0
  6
CONTINUOUS
 62
     7
100
AcDbLine
 10
110.6628792009
 20
154.4771481515
 30
0.0
 11
93.3423711252
 21
144.4771481515
 31
0.0
  0
LINE
  5
522
330
1F
100
AcDbEntity
  8
0
  6
CONTINUOUS
 62
     7
100
AcDbLine
 10
93.3423711252
 20
144.4771481515
 30
0.0
 11
99.3423711252
 21
141.0130465363
 31
0.0
  0
LINE
  5
523
330
1F
100
AcDbEntity
  8
0
  6
CONTINUOUS
 62
     7
100
AcDbLine
 10
99.3423711252
 20
141.0130465363
 30
0.0
 11
110.6628792009
 21
147.5489449212
 31
0.0
  0
LINE
  5
524
330
1F
100
AcDbEntity
  8
0
  6
CONTINUOUS
 62
     7
100
AcDbLine
 10
79.3423711252
 20
161.0130465363
 30
0.0
 11
79.3423711252
 21
141.0130465363
 31
0.0
  0
LINE
  5
525
330
1F
100
AcDbEntity
  8
0
  6
CONTINUOUS
 62
     7
100
AcDbLine
 10
73.3423711252
 20
157.5489449212
 30
0.0
 11
79.3423711252
 21
161.0130465363
 31
0.0
  0
LINE
  5
526
330
1F
100
AcDbEntity
  8
0
  6
CONTINUOUS
 62
     7
100
AcDbLine
 10
73.3423711252
 20
144.4771481515
 30
0.0
 11
73.3423711252
 21
157.5489449212
 31
0.0
  0
LINE
  5
527
330
1F
100
AcDbEntity
  8
0
  6
CONTINUOUS
 62
     7
100
AcDbLine
 10
62.2224134464
 20
138.0570375922
 30
0.0
 11
73.3423711252
 21
144.4771481515
 31
0.0
  0
LINE
  5
528
330
1F
100
AcDbEntity
  8
0
  6
CONTINUOUS
 62
     7
100
AcDbLine
 10
79.3423711252
 20
141.0130465363
 30
0.0
 11
65.7077722319
 21
133.141107195
 31
0.0
  0
LINE
  5
529
330
1F
100
AcDbEntity
  8
0
  6
CONTINUOUS
 62
     7
100
AcDbLine
 10
120.6628792009
 20
131.0130465363
 30
0.0
 11
120.6628792009
 21
137.9412497666
 31
0.0
  0
LINE
  5
52A
330
1F
100
AcDbEntity
  8
0
  6
CONTINUOUS
 62
     7
100
AcDbLine
 10
137.9833872765
 20
141.0130465363
 30
0.0
 11
120.6628792009
 21
131.0130465363
 31
0.0
  0
LINE
  5
52B
330
1F
100
AcDbEntity
  8
0
  6
CONTINUOUS
 62
     7
100
AcDbLine
 10
137.9833872765
 20
161.0130452624
 30
0.0
 11
137.9833872765
 21
141.0130465363
 31
0.0
  0
LINE
  5
52C
330
1F
100
AcDbEntity
  8
0
  6
CONTINUOUS
 62
     7
100
AcDbLine
 10
131.9833872765
 20
157.5489436472
 30
0.0
 11
137.9833872765
 21
161.0130452624
 31
0.0
  0
LINE
  5
52D
330
1F
100
AcDbEntity
  8
0
  6
CONTINUOUS
 62
     7
100
AcDbLine
 10
131.9833872765
 20
144.4771481515
 30
0.0
 11
131.9833872765
 21
157.5489436472
 31
0.0
  0
LINE
  5
52E
330
1F
100
AcDbEntity
  8
0
  6
CONTINUOUS
 62
     7
100
AcDbLine
 10
120.6628792009
 20
137.9412497666
 30
0.0
 11
131.9833872765
 21
144.4771481515
 31
0.0
  0
LINE
  5
52F
330
1F
100
AcDbEntity
  8
0
  6
CONTINUOUS
 62
     7
100
AcDbLine
 10
157.4810555355
 20
138.9936668255
 30
0.0
 11
147.9833872765
 21
144.4771468775
 31
0.0
  0
LINE
  5
530
330
1F
100
AcDbEntity
  8
0
  6
CONTINUOUS
 62
     7
100
AcDbLine
 10
147.9833872765
 20
144.4771468775
 30
0.0
 11
147.9833872765
 21
157.5489436472
 31
0.0
  0
LINE
  5
531
330
1F
100
AcDbEntity
  8
0
  6
CONTINUOUS
 62
     7
100
AcDbLine
 10
147.9833872765
 20
157.5489436472
 30
0.0
 11
141.9833872765
 21
161.0130452624
 31
0.0
  0
LINE
  5
532
330
1F
100
AcDbEntity
  8
0
  6
CONTINUOUS
 62
     7
100
AcDbLine
 10
141.9833872765
 20
161.0130452624
 30
0.0
 11
141.9833872765
 21
141.0130465363
 31
0.0
  0
LINE
  5
533
330
1F
100
AcDbEntity
  8
0
  6
CONTINUOUS
 62
     7
100
AcDbLine
 10
141.9833872765
 20
141.0130465363
 30
0.0
 11
159.3038953522
 21
131.0130465363
 31
0.0
  0
LINE
  5
534
330
1F
100
AcDbEntity
  8
0
  6
CONTINUOUS
 62
     7
100
AcDbLine
 10
159.3038953522
 20
131.0130465363
 30
0.0
 11
159.3038953522
 21
133.0706132569
 31
0.0
  0
LINE
  5
535
330
1F
100
AcDbEntity
  8
0
  6
CONTINUOUS
 62
     7
100
AcDbLine
 10
150.310507977
 20
176.9899908492
 30
0.0
 11
147.9833878282
 21
178.3335542935
 31
0.0
  0
LINE
  5
536
330
1F
100
AcDbEntity
  8
0
  6
CONTINUOUS
 62
     7
100
AcDbLine
 10
147.9833878282
 20
178.3335542935
 30
0.0
 11
147.9833878282
 21
191.4053510632
 31
0.0
  0
LINE
  5
537
330
1F
100
AcDbEntity
  8
0
  6
CONTINUOUS
 62
     7
100
AcDbLine
 10
147.9833878282
 20
191.4053510632
 30
0.0
 11
141.9833889314
 21
194.8694545893
 31
0.0
  0
LINE
  5
538
330
1F
100
AcDbEntity
  8
0
  6
CONTINUOUS
 62
     7
100
AcDbLine
 10
141.9833889314
 20
194.8694545893
 30
0.0
 11
141.9833889314
 21
174.8694545893
 31
0.0
  0
LINE
  5
539
330
1F
100
AcDbEntity
  8
0
  6
CONTINUOUS
 62
     7
100
AcDbLine
 10
141.9833889314
 20
174.8694545893
 30
0.0
 11
151.1157761237
 21
169.5968683855
 31
0.0
  0
LINE
  5
53A
330
1F
100
AcDbEntity
  8
0
  6
CONTINUOUS
 62
     7
100
AcDbLine
 10
118.6628792009
 20
195.2617565683
 30
0.0
 11
118.6628792009
 21
208.3335533381
 31
0.0
  0
LINE
  5
53B
330
1F
100
AcDbEntity
  8
0
  6
CONTINUOUS
 62
     7
100
AcDbLine
 10
118.6628792009
 20
208.3335533381
 30
0.0
 11
112.6628792009
 21
211.7976549532
 31
0.0
  0
LINE
  5
53C
330
1F
100
AcDbEntity
  8
0
  6
CONTINUOUS
 62
     7
100
AcDbLine
 10
112.6628792009
 20
211.7976549532
 30
0.0
 11
112.6628792009
 21
191.7976549532
 31
0.0
  0
LINE
  5
53D
330
1F
100
AcDbEntity
  8
0
  6
CONTINUOUS
 62
     7
100
AcDbLine
 10
112.6628792009
 20
191.7976549532
 30
0.0
 11
129.9833872765
 21
181.7976549532
 31
0.0
  0
LINE
  5
53E
330
1F
100
AcDbEntity
  8
0
  6
CONTINUOUS
 62
     7
100
AcDbLine
 10
129.9833872765
 20
181.7976549532
 30
0.0
 11
129.9833872765
 21
188.7258581835
 31
0.0
  0
LINE
  5
53F
330
1F
100
AcDbEntity
  8
0
  6
CONTINUOUS
 62
     7
100
AcDbLine
 10
129.9833872765
 20
188.7258581835
 30
0.0
 11
118.6628792009
 21
195.2617565683
 31
0.0
  0
LINE
  5
540
330
1F
100
AcDbEntity
  8
0
  6
CONTINUOUS
 62
     7
100
AcDbLine
 10
151.8226397142
 20
164.5699583477
 30
0.0
 11
139.9833889314
 21
171.4053529742
 31
0.0
  0
LINE
  5
541
330
1F
100
AcDbEntity
  8
0
  6
CONTINUOUS
 62
     7
100
AcDbLine
 10
139.9833889314
 20
171.4053529742
 30
0.0
 11
122.662878925
 21
161.4053518595
 31
0.0
  0
LINE
  5
542
330
1F
100
AcDbEntity
  8
0
  6
CONTINUOUS
 62
     7
100
AcDbLine
 10
122.662878925
 20
161.4053518595
 30
0.0
 11
128.6628787933
 21
157.9412504725
 31
0.0
  0
LINE
  5
543
330
1F
100
AcDbEntity
  8
0
  6
CONTINUOUS
 62
     7
100
AcDbLine
 10
128.6628787933
 20
157.9412504725
 30
0.0
 11
139.9833885619
 21
164.4771498347
 31
0.0
  0
LINE
  5
544
330
1F
100
AcDbEntity
  8
0
  6
CONTINUOUS
 62
     7
100
AcDbLine
 10
139.9833885619
 20
164.4771498347
 30
0.0
 11
151.303894249
 21
157.9412504036
 31
0.0
  0
LINE
  5
545
330
1F
100
AcDbEntity
  8
0
  6
CONTINUOUS
 62
     7
100
AcDbLine
 10
151.303894249
 20
157.9412504036
 30
0.0
 11
152.794641281
 21
158.8019336038
 31
0.0
  0
LINE
  5
546
330
1F
100
AcDbEntity
  8
0
  6
CONTINUOUS
 62
     7
100
AcDbLine
 10
147.9833872765
 20
292.9689410994
 30
0.0
 11
141.9833872765
 21
296.4330427145
 31
0.0
  0
LINE
  5
547
330
1F
100
AcDbEntity
  8
0
  6
CONTINUOUS
 62
     7
100
AcDbLine
 10
141.9833872765
 20
296.4330427145
 30
0.0
 11
141.9833872765
 21
276.4330465363
 31
0.0
  0
LINE
  5
548
330
1F
100
AcDbEntity
  8
0
  6
CONTINUOUS
 62
     7
100
AcDbLine
 10
141.9833872765
 20
276.4330465363
 30
0.0
 11
159.3038953522
 21
266.4330465363
 31
0.0
  0
LINE
  5
549
330
1F
100
AcDbEntity
  8
0
  6
CONTINUOUS
 62
     7
100
AcDbLine
 10
159.3038953522
 20
266.4330465363
 30
0.0
 11
159.3038953522
 21
273.3612497666
 31
0.0
  0
LINE
  5
54A
330
1F
100
AcDbEntity
  8
0
  6
CONTINUOUS
 62
     7
100
AcDbLine
 10
159.3038953522
 20
273.3612497666
 30
0.0
 11
147.9833872765
 21
279.8971443296
 31
0.0
  0
LINE
  5
54B
330
1F
100
AcDbEntity
  8
0
  6
CONTINUOUS
 62
     7
100
AcDbLine
 10
147.9833872765
 20
279.8971443296
 30
0.0
 11
147.9833872765
 21
292.9689410994
 31
0.0
  0
LINE
  5
54C
330
1F
100
AcDbEntity
  8
0
  6
CONTINUOUS
 62
     7
100
AcDbLine
 10
120.6628792009
 20
164.8694517229
 30
0.0
 11
120.6628792009
 21
171.7976549532
 31
0.0
  0
LINE
  5
54D
330
1F
100
AcDbEntity
  8
0
  6
CONTINUOUS
 62
     7
100
AcDbLine
 10
137.9833872765
 20
174.8694517229
 30
0.0
 11
120.6628792009
 21
164.8694517229
 31
0.0
  0
LINE
  5
54E
330
1F
100
AcDbEntity
  8
0
  6
CONTINUOUS
 62
     7
100
AcDbLine
 10
137.9833872765
 20
194.8694517229
 30
0.0
 11
137.9833872765
 21
174.8694517229
 31
0.0
  0
LINE
  5
54F
330
1F
100
AcDbEntity
  8
0
  6
CONTINUOUS
 62
     7
100
AcDbLine
 10
131.9833872765
 20
191.4053501078
 30
0.0
 11
137.9833872765
 21
194.8694517229
 31
0.0
  0
LINE
  5
550
330
1F
100
AcDbEntity
  8
0
  6
CONTINUOUS
 62
     7
100
AcDbLine
 10
131.9833872765
 20
178.3335533381
 30
0.0
 11
131.9833872765
 21
191.4053501078
 31
0.0
  0
LINE
  5
551
330
1F
100
AcDbEntity
  8
0
  6
CONTINUOUS
 62
     7
100
AcDbLine
 10
120.6628792009
 20
171.7976549532
 30
0.0
 11
131.9833872765
 21
178.3335533381
 31
0.0
  0
LINE
  5
552
330
1F
100
AcDbEntity
  8
0
  6
CONTINUOUS
 62
     7
100
AcDbLine
 10
155.4584821633
 20
146.4834951198
 30
0.0
 11
151.9833872765
 21
144.4771481515
 31
0.0
  0
LINE
  5
553
330
1F
100
AcDbEntity
  8
0
  6
CONTINUOUS
 62
     7
100
AcDbLine
 10
151.9833872765
 20
144.4771481515
 30
0.0
 11
156.6992988187
 21
141.7544153531
 31
0.0
  0
LINE
  5
554
330
1F
100
AcDbEntity
  8
0
  6
CONTINUOUS
 62
     7
100
AcDbLine
 10
91.3423711252
 20
114.0876562271
 30
0.0
 11
91.3423711252
 21
121.0158594574
 31
0.0
  0
LINE
  5
555
330
1F
100
AcDbEntity
  8
0
  6
CONTINUOUS
 62
     7
100
AcDbLine
 10
108.6628792009
 20
124.0876562271
 30
0.0
 11
91.3423711252
 21
114.0876562271
 31
0.0
  0
LINE
  5
556
330
1F
100
AcDbEntity
  8
0
  6
CONTINUOUS
 62
     7
100
AcDbLine
 10
108.6628792009
 20
144.0876562271
 30
0.0
 11
108.6628792009
 21
124.0876562271
 31
0.0
  0
LINE
  5
557
330
1F
100
AcDbEntity
  8
0
  6
CONTINUOUS
 62
     7
100
AcDbLine
 10
102.6628792009
 20
140.623554612
 30
0.0
 11
108.6628792009
 21
144.0876562271
 31
0.0
  0
LINE
  5
558
330
1F
100
AcDbEntity
  8
0
  6
CONTINUOUS
 62
     7
100
AcDbLine
 10
102.6628792009
 20
127.5517578423
 30
0.0
 11
102.6628792009
 21
140.623554612
 31
0.0
  0
LINE
  5
559
330
1F
100
AcDbEntity
  8
0
  6
CONTINUOUS
 62
     7
100
AcDbLine
 10
91.3423711252
 20
121.0158594574
 30
0.0
 11
102.6628792009
 21
127.5517578423
 31
0.0
  0
LINE
  5
55A
330
1F
100
AcDbEntity
  8
0
  6
CONTINUOUS
 62
     7
100
AcDbLine
 10
118.6628792009
 20
161.4053513817
 30
0.0
 11
118.6628792009
 21
174.4771468775
 31
0.0
  0
LINE
  5
55B
330
1F
100
AcDbEntity
  8
0
  6
CONTINUOUS
 62
     7
100
AcDbLine
 10
118.6628792009
 20
174.4771468775
 30
0.0
 11
112.6628792009
 21
177.9412484927
 31
0.0
  0
LINE
  5
55C
330
1F
100
AcDbEntity
  8
0
  6
CONTINUOUS
 62
     7
100
AcDbLine
 10
112.6628792009
 20
177.9412484927
 30
0.0
 11
112.6628792009
 21
157.9412497666
 31
0.0
  0
LINE
  5
55D
330
1F
100
AcDbEntity
  8
0
  6
CONTINUOUS
 62
     7
100
AcDbLine
 10
112.6628792009
 20
157.9412497666
 30
0.0
 11
129.9833872765
 21
147.9412497666
 31
0.0
  0
LINE
  5
55E
330
1F
100
AcDbEntity
  8
0
  6
CONTINUOUS
 62
     7
100
AcDbLine
 10
129.9833872765
 20
147.9412497666
 30
0.0
 11
129.9833872765
 21
154.8694529969
 31
0.0
  0
LINE
  5
55F
330
1F
100
AcDbEntity
  8
0
  6
CONTINUOUS
 62
     7
100
AcDbLine
 10
129.9833872765
 20
154.8694529969
 30
0.0
 11
118.6628792009
 21
161.4053513817
 31
0.0
  0
LINE
  5
560
330
1F
100
AcDbEntity
  8
0
  6
CONTINUOUS
 62
     7
100
AcDbLine
 10
91.3423711252
 20
147.9412497666
 30
0.0
 11
91.3423711252
 21
154.8694529969
 31
0.0
  0
LINE
  5
561
330
1F
100
AcDbEntity
  8
0
  6
CONTINUOUS
 62
     7
100
AcDbLine
 10
108.6628792009
 20
157.9412497666
 30
0.0
 11
91.3423711252
 21
147.9412497666
 31
0.0
  0
LINE
  5
562
330
1F
100
AcDbEntity
  8
0
  6
CONTINUOUS
 62
     7
100
AcDbLine
 10
108.6628792009
 20
177.9412484927
 30
0.0
 11
108.6628792009
 21
157.9412497666
 31
0.0
  0
LINE
  5
563
330
1F
100
AcDbEntity
  8
0
  6
CONTINUOUS
 62
     7
100
AcDbLine
 10
102.6628792009
 20
174.4771468775
 30
0.0
 11
108.6628792009
 21
177.9412484927
 31
0.0
  0
LINE
  5
564
330
1F
100
AcDbEntity
  8
0
  6
CONTINUOUS
 62
     7
100
AcDbLine
 10
102.6628792009
 20
161.4053513817
 30
0.0
 11
102.6628792009
 21
174.4771468775
 31
0.0
  0
LINE
  5
565
330
1F
100
AcDbEntity
  8
0
  6
CONTINUOUS
 62
     7
100
AcDbLine
 10
91.3423711252
 20
154.8694529969
 30
0.0
 11
102.6628792009
 21
161.4053513817
 31
0.0
  0
LINE
  5
566
330
1F
100
AcDbEntity
  8
0
  6
CONTINUOUS
 62
     7
100
AcDbLine
 10
114.4835906907
 20
292.3100962136
 30
0.0
 11
129.9834225271
 21
283.3612641305
 31
0.0
  0
LINE
  5
567
330
1F
100
AcDbEntity
  8
0
  6
CONTINUOUS
 62
     7
100
AcDbLine
 10
129.9834225271
 20
283.3612641305
 30
0.0
 11
129.9834225271
 21
290.2894673608
 31
0.0
  0
LINE
  5
568
330
1F
100
AcDbEntity
  8
0
  6
CONTINUOUS
 62
     7
100
AcDbLine
 10
129.9834225271
 20
290.2894673608
 30
0.0
 11
121.1435330724
 21
295.393179917
 31
0.0
  0
LINE
  5
569
330
1F
100
AcDbEntity
  8
0
  6
CONTINUOUS
 62
     7
100
AcDbLine
 10
150.1350111987
 20
210.9449075008
 30
0.0
 11
147.9833872765
 21
212.1871456036
 31
0.0
  0
LINE
  5
56A
330
1F
100
AcDbEntity
  8
0
  6
CONTINUOUS
 62
     7
100
AcDbLine
 10
147.9833872765
 20
212.1871456036
 30
0.0
 11
147.9833872765
 21
225.2589423733
 31
0.0
  0
LINE
  5
56B
330
1F
100
AcDbEntity
  8
0
  6
CONTINUOUS
 62
     7
100
AcDbLine
 10
147.9833872765
 20
225.2589423733
 30
0.0
 11
141.9833872765
 21
228.7230439884
 31
0.0
  0
LINE
  5
56C
330
1F
100
AcDbEntity
  8
0
  6
CONTINUOUS
 62
     7
100
AcDbLine
 10
141.9833872765
 20
228.7230439884
 30
0.0
 11
141.9833872765
 21
208.7230465363
 31
0.0
  0
LINE
  5
56D
330
1F
100
AcDbEntity
  8
0
  6
CONTINUOUS
 62
     7
100
AcDbLine
 10
141.9833872765
 20
208.7230465363
 30
0.0
 11
149.7139305407
 21
204.2598153018
 31
0.0
  0
LINE
  5
56E
330
1F
100
AcDbEntity
  8
0
  6
CONTINUOUS
 62
     7
100
AcDbLine
 10
161.3038953522
 20
296.8253501078
 30
0.0
 11
161.3038953522
 21
301.3683162804
 31
0.0
  0
LINE
  5
56F
330
1F
100
AcDbEntity
  8
0
  6
CONTINUOUS
 62
     7
100
AcDbLine
 10
149.9833861733
 20
290.289451086
 30
0.0
 11
161.3038953522
 21
296.8253501078
 31
0.0
  0
LINE
  5
570
330
1F
100
AcDbEntity
  8
0
  6
CONTINUOUS
 62
     7
100
AcDbLine
 10
149.9833889522
 20
283.3612497666
 30
0.0
 11
149.9833861733
 21
290.289451086
 31
0.0
  0
LINE
  5
571
330
1F
100
AcDbEntity
  8
0
  6
CONTINUOUS
 62
     7
100
AcDbLine
 10
167.3038953522
 20
293.3612484926
 30
0.0
 11
149.9833889522
 21
283.3612497666
 31
0.0
  0
LINE
  5
572
330
1F
100
AcDbEntity
  8
0
  6
CONTINUOUS
 62
     7
100
AcDbLine
 10
167.3038953522
 20
293.6314521263
 30
0.0
 11
167.3038953522
 21
293.3612484926
 31
0.0
  0
LINE
  5
573
330
1F
100
AcDbEntity
  8
0
  6
CONTINUOUS
 62
     7
100
AcDbLine
 10
91.3423711252
 20
181.7976549532
 30
0.0
 11
91.3423711252
 21
188.7258581835
 31
0.0
  0
LINE
  5
574
330
1F
100
AcDbEntity
  8
0
  6
CONTINUOUS
 62
     7
100
AcDbLine
 10
108.6628792009
 20
191.7976549532
 30
0.0
 11
91.3423711252
 21
181.7976549532
 31
0.0
  0
LINE
  5
575
330
1F
100
AcDbEntity
  8
0
  6
CONTINUOUS
 62
     7
100
AcDbLine
 10
108.6628792009
 20
211.7976549532
 30
0.0
 11
108.6628792009
 21
191.7976549532
 31
0.0
  0
LINE
  5
576
330
1F
100
AcDbEntity
  8
0
  6
CONTINUOUS
 62
     7
100
AcDbLine
 10
102.6628792009
 20
208.3335533381
 30
0.0
 11
108.6628792009
 21
211.7976549532
 31
0.0
  0
LINE
  5
577
330
1F
100
AcDbEntity
  8
0
  6
CONTINUOUS
 62
     7
100
AcDbLine
 10
102.6628792009
 20
195.2617565683
 30
0.0
 11
102.6628792009
 21
208.3335533381
 31
0.0
  0
LINE
  5
578
330
1F
100
AcDbEntity
  8
0
  6
CONTINUOUS
 62
     7
100
AcDbLine
 10
91.3423711252
 20
188.7258581835
 30
0.0
 11
102.6628792009
 21
195.2617565683
 31
0.0
  0
LINE
  5
579
330
1F
100
AcDbEntity
  8
0
  6
CONTINUOUS
 62
     7
100
AcDbLine
 10
147.9833878282
 20
123.6953523372
 30
0.0
 11
141.9833889314
 21
127.1594558632
 31
0.0
  0
LINE
  5
57A
330
1F
100
AcDbEntity
  8
0
  6
CONTINUOUS
 62
     7
100
AcDbLine
 10
141.9833889314
 20
127.1594558632
 30
0.0
 11
141.9833889314
 21
107.1594558632
 31
0.0
  0
LINE
  5
57B
330
1F
100
AcDbEntity
  8
0
  6
CONTINUOUS
 62
     7
100
AcDbLine
 10
141.9833889314
 20
107.1594558632
 30
0.0
 11
159.3038953522
 21
97.1594568187
 31
0.0
  0
LINE
  5
57C
330
1F
100
AcDbEntity
  8
0
  6
CONTINUOUS
 62
     7
100
AcDbLine
 10
159.3038953522
 20
97.1594568187
 30
0.0
 11
159.3038953522
 21
104.0876575011
 31
0.0
  0
LINE
  5
57D
330
1F
100
AcDbEntity
  8
0
  6
CONTINUOUS
 62
     7
100
AcDbLine
 10
159.3038953522
 20
104.0876575011
 30
0.0
 11
147.9833878282
 21
110.6235555675
 31
0.0
  0
LINE
  5
57E
330
1F
100
AcDbEntity
  8
0
  6
CONTINUOUS
 62
     7
100
AcDbLine
 10
147.9833878282
 20
110.6235555675
 30
0.0
 11
147.9833878282
 21
123.6953523372
 31
0.0
  0
LINE
  5
57F
330
1F
100
AcDbEntity
  8
0
  6
CONTINUOUS
 62
     7
100
AcDbLine
 10
155.0743918679
 20
241.9495599284
 30
0.0
 11
147.9833878282
 21
246.0435530196
 31
0.0
  0
LINE
  5
580
330
1F
100
AcDbEntity
  8
0
  6
CONTINUOUS
 62
     7
100
AcDbLine
 10
147.9833878282
 20
246.0435530196
 30
0.0
 11
147.9833878282
 21
259.1153497893
 31
0.0
  0
LINE
  5
581
330
1F
100
AcDbEntity
  8
0
  6
CONTINUOUS
 62
     7
100
AcDbLine
 10
147.9833878282
 20
259.1153497893
 30
0.0
 11
141.9833889314
 21
262.5794533154
 31
0.0
  0
LINE
  5
582
330
1F
100
AcDbEntity
  8
0
  6
CONTINUOUS
 62
     7
100
AcDbLine
 10
141.9833889314
 20
262.5794533154
 30
0.0
 11
141.9833889314
 21
242.5794533154
 31
0.0
  0
LINE
  5
583
330
1F
100
AcDbEntity
  8
0
  6
CONTINUOUS
 62
     7
100
AcDbLine
 10
141.9833889314
 20
242.5794533154
 30
0.0
 11
153.6983838
 21
235.8157978745
 31
0.0
  0
LINE
  5
584
330
1F
100
AcDbEntity
  8
0
  6
CONTINUOUS
 62
     7
100
AcDbLine
 10
161.30389883
 20
276.0435526844
 30
0.0
 11
167.3038994198
 21
279.5076532778
 31
0.0
  0
LINE
  5
585
330
1F
100
AcDbEntity
  8
0
  6
CONTINUOUS
 62
     7
100
AcDbLine
 10
161.3038964652
 20
262.9717559146
 30
0.0
 11
161.30389883
 21
276.0435526844
 31
0.0
  0
LINE
  5
586
330
1F
100
AcDbEntity
  8
0
  6
CONTINUOUS
 62
     7
100
AcDbLine
 10
149.9833861733
 20
256.4358588204
 30
0.0
 11
161.3038964652
 21
262.9717559146
 31
0.0
  0
LINE
  5
587
330
1F
100
AcDbEntity
  8
0
  6
CONTINUOUS
 62
     7
100
AcDbLine
 10
149.9833861733
 20
249.5076555902
 30
0.0
 11
149.9833861733
 21
256.4358588204
 31
0.0
  0
LINE
  5
588
330
1F
100
AcDbEntity
  8
0
  6
CONTINUOUS
 62
     7
100
AcDbLine
 10
158.5104783051
 20
254.4307745279
 30
0.0
 11
149.9833861733
 21
249.5076555902
 31
0.0
  0
LINE
  5
589
330
1F
100
AcDbEntity
  8
0
  6
CONTINUOUS
 62
     7
100
AcDbLine
 10
167.3038994198
 20
279.5076532778
 30
0.0
 11
167.3038953522
 21
277.6010672466
 31
0.0
  0
LINE
  5
58A
330
1F
100
AcDbEntity
  8
0
  6
CONTINUOUS
 62
     7
100
AcDbLine
 10
151.9833872765
 20
279.8971481515
 30
0.0
 11
157.9833872765
 21
276.4330465363
 31
0.0
  0
LINE
  5
58B
330
1F
100
AcDbEntity
  8
0
  6
CONTINUOUS
 62
     7
100
AcDbLine
 10
157.9833872765
 20
276.4330465363
 30
0.0
 11
168.7597573244
 21
282.6547866843
 31
0.0
  0
LINE
  5
58C
330
1F
100
AcDbEntity
  8
0
  6
CONTINUOUS
 62
     7
100
AcDbLine
 10
168.6012110809
 20
289.4914531982
 30
0.0
 11
151.9833872765
 21
279.8971481515
 31
0.0
  0
LINE
  5
58D
330
1F
100
AcDbEntity
  8
0
  6
CONTINUOUS
 62
     7
100
AcDbLine
 10
84.3461113403
 20
275.8535368529
 30
0.0
 11
100.6628792009
 21
266.4330465363
 31
0.0
  0
LINE
  5
58E
330
1F
100
AcDbEntity
  8
0
  6
CONTINUOUS
 62
     7
100
AcDbLine
 10
100.6628792009
 20
266.4330465363
 30
0.0
 11
100.6628792009
 21
273.3612497666
 31
0.0
  0
LINE
  5
58F
330
1F
100
AcDbEntity
  8
0
  6
CONTINUOUS
 62
     7
100
AcDbLine
 10
100.6628792009
 20
273.3612497666
 30
0.0
 11
89.629873416
 21
279.7311586265
 31
0.0
  0
LINE
  5
590
330
1F
100
AcDbEntity
  8
0
  6
CONTINUOUS
 62
     7
100
AcDbLine
 10
110.6628792009
 20
282.9689449212
 30
0.0
 11
121.9833872765
 21
276.4330465363
 31
0.0
  0
LINE
  5
591
330
1F
100
AcDbEntity
  8
0
  6
CONTINUOUS
 62
     7
100
AcDbLine
 10
121.9833872765
 20
276.4330465363
 30
0.0
 11
127.9833872765
 21
279.8971481515
 31
0.0
  0
LINE
  5
592
330
1F
100
AcDbEntity
  8
0
  6
CONTINUOUS
 62
     7
100
AcDbLine
 10
127.9833872765
 20
279.8971481515
 30
0.0
 11
110.6628792009
 21
289.8971481515
 31
0.0
  0
LINE
  5
593
330
1F
100
AcDbEntity
  8
0
  6
CONTINUOUS
 62
     7
100
AcDbLine
 10
110.6628792009
 20
289.8971481515
 30
0.0
 11
93.3423711252
 21
279.8971481515
 31
0.0
  0
LINE
  5
594
330
1F
100
AcDbEntity
  8
0
  6
CONTINUOUS
 62
     7
100
AcDbLine
 10
93.3423711252
 20
279.8971481515
 30
0.0
 11
99.3423711252
 21
276.4330465363
 31
0.0
  0
LINE
  5
595
330
1F
100
AcDbEntity
  8
0
  6
CONTINUOUS
 62
     7
100
AcDbLine
 10
99.3423711252
 20
276.4330465363
 30
0.0
 11
110.6628792009
 21
282.9689449212
 31
0.0
  0
LINE
  5
596
330
1F
100
AcDbEntity
  8
0
  6
CONTINUOUS
 62
     7
100
AcDbLine
 10
71.3423711252
 20
249.5076562271
 30
0.0
 11
71.3423711252
 21
256.4358594574
 31
0.0
  0
LINE
  5
597
330
1F
100
AcDbEntity
  8
0
  6
CONTINUOUS
 62
     7
100
AcDbLine
 10
71.3423711252
 20
256.4358594574
 30
0.0
 11
67.2204662342
 21
258.8156423558
 31
0.0
  0
LINE
  5
598
330
1F
100
AcDbEntity
  8
0
  6
CONTINUOUS
 62
     7
100
AcDbLine
 10
63.6090172251
 20
253.9725101831
 30
0.0
 11
71.3423711252
 21
249.5076562271
 31
0.0
  0
LINE
  5
599
330
1F
100
AcDbEntity
  8
0
  6
CONTINUOUS
 62
     7
100
AcDbLine
 10
70.0218630495
 20
259.504843306
 30
0.0
 11
81.3423711252
 21
266.0407416909
 31
0.0
  0
LINE
  5
59A
330
1F
100
AcDbEntity
  8
0
  6
CONTINUOUS
 62
     7
100
AcDbLine
 10
81.3423711252
 20
266.0407416909
 30
0.0
 11
92.6628792009
 21
259.504843306
 31
0.0
  0
LINE
  5
59B
330
1F
100
AcDbEntity
  8
0
  6
CONTINUOUS
 62
     7
100
AcDbLine
 10
92.6628792009
 20
259.504843306
 30
0.0
 11
98.6628792009
 21
262.9689449212
 31
0.0
  0
LINE
  5
59C
330
1F
100
AcDbEntity
  8
0
  6
CONTINUOUS
 62
     7
100
AcDbLine
 10
98.6628792009
 20
262.9689449212
 30
0.0
 11
81.3423711252
 21
272.9689449212
 31
0.0
  0
LINE
  5
59D
330
1F
100
AcDbEntity
  8
0
  6
CONTINUOUS
 62
     7
100
AcDbLine
 10
81.3423711252
 20
272.9689449212
 30
0.0
 11
79.8195953965
 21
272.0897699443
 31
0.0
  0
LINE
  5
59E
330
1F
100
AcDbEntity
  8
0
  6
CONTINUOUS
 62
     7
100
AcDbLine
 10
68.4920021789
 20
260.3881088915
 30
0.0
 11
70.0218630495
 21
259.504843306
 31
0.0
  0
LINE
  5
59F
330
1F
100
AcDbEntity
  8
0
  6
CONTINUOUS
 62
     7
100
AcDbLine
 10
63.3423711252
 20
242.5794529969
 30
0.0
 11
69.3423711252
 21
246.043554612
 31
0.0
  0
LINE
  5
5A0
330
1F
100
AcDbEntity
  8
0
  6
CONTINUOUS
 62
     7
100
AcDbLine
 10
69.3423711252
 20
246.043554612
 30
0.0
 11
61.3723312698
 21
250.645059268
 31
0.0
  0
LINE
  5
5A1
330
1F
100
AcDbEntity
  8
0
  6
CONTINUOUS
 62
     7
100
AcDbLine
 10
58.2709939954
 20
245.5074139479
 30
0.0
 11
63.3423711252
 21
242.5794529969
 31
0.0
  0
LINE
  5
5A2
330
1F
100
AcDbEntity
  8
0
  6
CONTINUOUS
 62
     7
100
AcDbLine
 10
62.0218641527
 20
232.579451086
 30
0.0
 11
62.0218641527
 21
239.5076543162
 31
0.0
  0
LINE
  5
5A3
330
1F
100
AcDbEntity
  8
0
  6
CONTINUOUS
 62
     7
100
AcDbLine
 10
79.3423711252
 20
242.5794529969
 30
0.0
 11
62.0218641527
 21
232.579451086
 31
0.0
  0
LINE
  5
5A4
330
1F
100
AcDbEntity
  8
0
  6
CONTINUOUS
 62
     7
100
AcDbLine
 10
79.3423711252
 20
262.579450449
 30
0.0
 11
79.3423711252
 21
242.5794529969
 31
0.0
  0
LINE
  5
5A5
330
1F
100
AcDbEntity
  8
0
  6
CONTINUOUS
 62
     7
100
AcDbLine
 10
73.3423722284
 20
259.1153494708
 30
0.0
 11
79.3423711252
 21
262.579450449
 31
0.0
  0
LINE
  5
5A6
330
1F
100
AcDbEntity
  8
0
  6
CONTINUOUS
 62
     7
100
AcDbLine
 10
73.3423722284
 20
246.0435527011
 30
0.0
 11
73.3423722284
 21
259.1153494708
 31
0.0
  0
LINE
  5
5A7
330
1F
100
AcDbEntity
  8
0
  6
CONTINUOUS
 62
     7
100
AcDbLine
 10
62.0218641527
 20
239.5076543162
 30
0.0
 11
73.3423722284
 21
246.0435527011
 31
0.0
  0
LINE
  5
5A8
330
1F
100
AcDbEntity
  8
0
  6
CONTINUOUS
 62
     7
100
AcDbLine
 10
110.6628792009
 20
249.1153488338
 30
0.0
 11
121.9833872765
 21
242.579450449
 31
0.0
  0
LINE
  5
5A9
330
1F
100
AcDbEntity
  8
0
  6
CONTINUOUS
 62
     7
100
AcDbLine
 10
121.9833872765
 20
242.579450449
 30
0.0
 11
127.9833872765
 21
246.0435520641
 31
0.0
  0
LINE
  5
5AA
330
1F
100
AcDbEntity
  8
0
  6
CONTINUOUS
 62
     7
100
AcDbLine
 10
127.9833872765
 20
246.0435520641
 30
0.0
 11
110.6628792009
 21
256.0435520641
 31
0.0
  0
LINE
  5
5AB
330
1F
100
AcDbEntity
  8
0
  6
CONTINUOUS
 62
     7
100
AcDbLine
 10
110.6628792009
 20
256.0435520641
 30
0.0
 11
93.3423711252
 21
246.0435520641
 31
0.0
  0
LINE
  5
5AC
330
1F
100
AcDbEntity
  8
0
  6
CONTINUOUS
 62
     7
100
AcDbLine
 10
93.3423711252
 20
246.0435520641
 30
0.0
 11
99.3423711252
 21
242.579450449
 31
0.0
  0
LINE
  5
5AD
330
1F
100
AcDbEntity
  8
0
  6
CONTINUOUS
 62
     7
100
AcDbLine
 10
99.3423711252
 20
242.579450449
 30
0.0
 11
110.6628792009
 21
249.1153488338
 31
0.0
  0
LINE
  5
5AE
330
1F
100
AcDbEntity
  8
0
  6
CONTINUOUS
 62
     7
100
AcDbLine
 10
150.6037666867
 20
216.0094259861
 30
0.0
 11
149.9833889522
 21
215.6512497666
 31
0.0
  0
LINE
  5
5AF
330
1F
100
AcDbEntity
  8
0
  6
CONTINUOUS
 62
     7
100
AcDbLine
 10
149.9833861733
 20
222.5794523599
 30
0.0
 11
151.5320986882
 21
223.4736019473
 31
0.0
  0
LINE
  5
5B0
330
1F
100
AcDbEntity
  8
0
  6
CONTINUOUS
 62
     7
100
AcDbLine
 10
149.9833889522
 20
215.6512497666
 30
0.0
 11
149.9833861733
 21
222.5794523599
 31
0.0
  0
LINE
  5
5B1
330
1F
100
AcDbEntity
  8
0
  6
CONTINUOUS
 62
     7
100
AcDbLine
 10
120.6628792009
 20
266.4330465363
 30
0.0
 11
120.6628792009
 21
273.3612497666
 31
0.0
  0
LINE
  5
5B2
330
1F
100
AcDbEntity
  8
0
  6
CONTINUOUS
 62
     7
100
AcDbLine
 10
137.9833872765
 20
276.4330465363
 30
0.0
 11
120.6628792009
 21
266.4330465363
 31
0.0
  0
LINE
  5
5B3
330
1F
100
AcDbEntity
  8
0
  6
CONTINUOUS
 62
     7
100
AcDbLine
 10
137.9833872765
 20
296.4330427145
 30
0.0
 11
137.9833872765
 21
276.4330465363
 31
0.0
  0
LINE
  5
5B4
330
1F
100
AcDbEntity
  8
0
  6
CONTINUOUS
 62
     7
100
AcDbLine
 10
131.9833872765
 20
292.9689410994
 30
0.0
 11
137.9833872765
 21
296.4330427145
 31
0.0
  0
LINE
  5
5B5
330
1F
100
AcDbEntity
  8
0
  6
CONTINUOUS
 62
     7
100
AcDbLine
 10
131.9833872765
 20
279.8971481515
 30
0.0
 11
131.9833872765
 21
292.9689410994
 31
0.0
  0
LINE
  5
5B6
330
1F
100
AcDbEntity
  8
0
  6
CONTINUOUS
 62
     7
100
AcDbLine
 10
120.6628792009
 20
273.3612497666
 30
0.0
 11
131.9833872765
 21
279.8971481515
 31
0.0
  0
LINE
  5
5B7
330
1F
100
AcDbEntity
  8
0
  6
CONTINUOUS
 62
     7
100
AcDbLine
 10
118.6628792009
 20
262.9717552944
 30
0.0
 11
118.6628792009
 21
276.0435520641
 31
0.0
  0
LINE
  5
5B8
330
1F
100
AcDbEntity
  8
0
  6
CONTINUOUS
 62
     7
100
AcDbLine
 10
118.6628792009
 20
276.0435520641
 30
0.0
 11
112.6628792009
 21
279.5076536793
 31
0.0
  0
LINE
  5
5B9
330
1F
100
AcDbEntity
  8
0
  6
CONTINUOUS
 62
     7
100
AcDbLine
 10
112.6628792009
 20
279.5076536793
 30
0.0
 11
112.6628792009
 21
259.5076536793
 31
0.0
  0
LINE
  5
5BA
330
1F
100
AcDbEntity
  8
0
  6
CONTINUOUS
 62
     7
100
AcDbLine
 10
112.6628792009
 20
259.5076536793
 30
0.0
 11
129.9833872765
 21
249.5076536793
 31
0.0
  0
LINE
  5
5BB
330
1F
100
AcDbEntity
  8
0
  6
CONTINUOUS
 62
     7
100
AcDbLine
 10
129.9833872765
 20
249.5076536793
 30
0.0
 11
129.9833872765
 21
256.4358569095
 31
0.0
  0
LINE
  5
5BC
330
1F
100
AcDbEntity
  8
0
  6
CONTINUOUS
 62
     7
100
AcDbLine
 10
129.9833872765
 20
256.4358569095
 30
0.0
 11
118.6628792009
 21
262.9717552944
 31
0.0
  0
LINE
  5
5BD
330
1F
100
AcDbEntity
  8
0
  6
CONTINUOUS
 62
     7
100
AcDbLine
 10
123.3865996386
 20
296.4075103888
 30
0.0
 11
128.6628798966
 21
293.3612485615
 31
0.0
  0
LINE
  5
5BE
330
1F
100
AcDbEntity
  8
0
  6
CONTINUOUS
 62
     7
100
AcDbLine
 10
128.6628798966
 20
293.3612485615
 30
0.0
 11
139.9833885619
 21
299.8971472868
 31
0.0
  0
LINE
  5
5BF
330
1F
100
AcDbEntity
  8
0
  6
CONTINUOUS
 62
     7
100
AcDbLine
 10
139.9833885619
 20
299.8971472868
 30
0.0
 11
151.303894249
 21
293.3612478557
 31
0.0
  0
LINE
  5
5C0
330
1F
100
AcDbEntity
  8
0
  6
CONTINUOUS
 62
     7
100
AcDbLine
 10
151.303894249
 20
293.3612478557
 30
0.0
 11
157.3038964555
 21
296.8253507448
 31
0.0
  0
LINE
  5
5C1
330
1F
100
AcDbEntity
  8
0
  6
CONTINUOUS
 62
     7
100
AcDbLine
 10
157.3038964555
 20
296.8253507448
 30
0.0
 11
143.4354763096
 21
304.8322868492
 31
0.0
  0
LINE
  5
5C2
330
1F
100
AcDbEntity
  8
0
  6
CONTINUOUS
 62
     7
100
AcDbLine
 10
159.3038953522
 20
300.2894529969
 30
0.0
 11
159.3038953522
 21
302.7458231943
 31
0.0
  0
LINE
  5
5C3
330
1F
100
AcDbEntity
  8
0
  6
CONTINUOUS
 62
     7
100
AcDbLine
 10
150.1354285824
 20
305.5828697545
 30
0.0
 11
159.3038953522
 21
300.2894529969
 31
0.0
  0
LINE
  5
5C4
330
1F
100
AcDbEntity
  8
0
  6
CONTINUOUS
 62
     7
100
AcDbLine
 10
60.0218630495
 20
161.4053513817
 30
0.0
 11
60.0218630495
 21
174.4771481515
 31
0.0
  0
LINE
  5
5C5
330
1F
100
AcDbEntity
  8
0
  6
CONTINUOUS
 62
     7
100
AcDbLine
 10
60.0218630495
 20
174.4771481515
 30
0.0
 11
54.0218630495
 21
177.9412497666
 31
0.0
  0
LINE
  5
5C6
330
1F
100
AcDbEntity
  8
0
  6
CONTINUOUS
 62
     7
100
AcDbLine
 10
54.0218630495
 20
177.9412497666
 30
0.0
 11
54.0218630495
 21
157.9412497666
 31
0.0
  0
LINE
  5
5C7
330
1F
100
AcDbEntity
  8
0
  6
CONTINUOUS
 62
     7
100
AcDbLine
 10
54.0218630495
 20
157.9412497666
 30
0.0
 11
71.3423711252
 21
147.9412497666
 31
0.0
  0
LINE
  5
5C8
330
1F
100
AcDbEntity
  8
0
  6
CONTINUOUS
 62
     7
100
AcDbLine
 10
71.3423711252
 20
147.9412497666
 30
0.0
 11
71.3423711252
 21
154.8694529969
 31
0.0
  0
LINE
  5
5C9
330
1F
100
AcDbEntity
  8
0
  6
CONTINUOUS
 62
     7
100
AcDbLine
 10
71.3423711252
 20
154.8694529969
 30
0.0
 11
60.0218630495
 21
161.4053513817
 31
0.0
  0
LINE
  5
5CA
330
1F
100
AcDbEntity
  8
0
  6
CONTINUOUS
 62
     7
100
AcDbLine
 10
81.3423711252
 20
164.4771481515
 30
0.0
 11
92.6628792009
 21
157.9412497666
 31
0.0
  0
LINE
  5
5CB
330
1F
100
AcDbEntity
  8
0
  6
CONTINUOUS
 62
     7
100
AcDbLine
 10
92.6628792009
 20
157.9412497666
 30
0.0
 11
98.6628792009
 21
161.4053513817
 31
0.0
  0
LINE
  5
5CC
330
1F
100
AcDbEntity
  8
0
  6
CONTINUOUS
 62
     7
100
AcDbLine
 10
98.6628792009
 20
161.4053513817
 30
0.0
 11
81.3423711252
 21
171.4053513817
 31
0.0
  0
LINE
  5
5CD
330
1F
100
AcDbEntity
  8
0
  6
CONTINUOUS
 62
     7
100
AcDbLine
 10
81.3423711252
 20
171.4053513817
 30
0.0
 11
64.0218630495
 21
161.4053513817
 31
0.0
  0
LINE
  5
5CE
330
1F
100
AcDbEntity
  8
0
  6
CONTINUOUS
 62
     7
100
AcDbLine
 10
64.0218630495
 20
161.4053513817
 30
0.0
 11
70.0218630495
 21
157.9412497666
 31
0.0
  0
LINE
  5
5CF
330
1F
100
AcDbEntity
  8
0
  6
CONTINUOUS
 62
     7
100
AcDbLine
 10
70.0218630495
 20
157.9412497666
 30
0.0
 11
81.3423711252
 21
164.4771481515
 31
0.0
  0
LINE
  5
5D0
330
1F
100
AcDbEntity
  8
0
  6
CONTINUOUS
 62
     7
100
AcDbLine
 10
89.3423711252
 20
178.3335533381
 30
0.0
 11
89.3423711252
 21
191.4053501078
 31
0.0
  0
LINE
  5
5D1
330
1F
100
AcDbEntity
  8
0
  6
CONTINUOUS
 62
     7
100
AcDbLine
 10
89.3423711252
 20
191.4053501078
 30
0.0
 11
83.3423711252
 21
194.8694517229
 31
0.0
  0
LINE
  5
5D2
330
1F
100
AcDbEntity
  8
0
  6
CONTINUOUS
 62
     7
100
AcDbLine
 10
83.3423711252
 20
194.8694517229
 30
0.0
 11
83.3423711252
 21
174.8694529969
 31
0.0
  0
LINE
  5
5D3
330
1F
100
AcDbEntity
  8
0
  6
CONTINUOUS
 62
     7
100
AcDbLine
 10
83.3423711252
 20
174.8694529969
 30
0.0
 11
100.6628792009
 21
164.8694529969
 31
0.0
  0
LINE
  5
5D4
330
1F
100
AcDbEntity
  8
0
  6
CONTINUOUS
 62
     7
100
AcDbLine
 10
100.6628792009
 20
164.8694529969
 30
0.0
 11
100.6628792009
 21
171.7976561989
 31
0.0
  0
LINE
  5
5D5
330
1F
100
AcDbEntity
  8
0
  6
CONTINUOUS
 62
     7
100
AcDbLine
 10
100.6628792009
 20
171.7976561989
 30
0.0
 11
89.3423711252
 21
178.3335533381
 31
0.0
  0
LINE
  5
5D6
330
1F
100
AcDbEntity
  8
0
  6
CONTINUOUS
 62
     7
100
AcDbLine
 10
110.6628792009
 20
181.4053501078
 30
0.0
 11
121.9833872765
 21
174.8694517229
 31
0.0
  0
LINE
  5
5D7
330
1F
100
AcDbEntity
  8
0
  6
CONTINUOUS
 62
     7
100
AcDbLine
 10
121.9833872765
 20
174.8694517229
 30
0.0
 11
127.9833872765
 21
178.3335533381
 31
0.0
  0
LINE
  5
5D8
330
1F
100
AcDbEntity
  8
0
  6
CONTINUOUS
 62
     7
100
AcDbLine
 10
127.9833872765
 20
178.3335533381
 30
0.0
 11
110.6628792009
 21
188.3335533381
 31
0.0
  0
LINE
  5
5D9
330
1F
100
AcDbEntity
  8
0
  6
CONTINUOUS
 62
     7
100
AcDbLine
 10
110.6628792009
 20
188.3335533381
 30
0.0
 11
93.3423711252
 21
178.3335533381
 31
0.0
  0
LINE
  5
5DA
330
1F
100
AcDbEntity
  8
0
  6
CONTINUOUS
 62
     7
100
AcDbLine
 10
93.3423711252
 20
178.3335533381
 30
0.0
 11
99.3423711252
 21
174.8694517229
 31
0.0
  0
LINE
  5
5DB
330
1F
100
AcDbEntity
  8
0
  6
CONTINUOUS
 62
     7
100
AcDbLine
 10
99.3423711252
 20
174.8694517229
 30
0.0
 11
110.6628792009
 21
181.4053501078
 31
0.0
  0
LINE
  5
5DC
330
1F
100
AcDbEntity
  8
0
  6
CONTINUOUS
 62
     7
100
AcDbLine
 10
52.0218630495
 20
215.2589449212
 30
0.0
 11
63.3423711252
 21
208.7230465363
 31
0.0
  0
LINE
  5
5DD
330
1F
100
AcDbEntity
  8
0
  6
CONTINUOUS
 62
     7
100
AcDbLine
 10
63.3423711252
 20
208.7230465363
 30
0.0
 11
69.3423711252
 21
212.1871481515
 31
0.0
  0
LINE
  5
5DE
330
1F
100
AcDbEntity
  8
0
  6
CONTINUOUS
 62
     7
100
AcDbLine
 10
69.3423711252
 20
212.1871481515
 30
0.0
 11
52.0218630495
 21
222.1871481515
 31
0.0
  0
LINE
  5
5DF
330
1F
100
AcDbEntity
  8
0
  6
CONTINUOUS
 62
     7
100
AcDbLine
 10
52.0218630495
 20
222.1871481515
 30
0.0
 11
48.0632046478
 21
219.9016156576
 31
0.0
  0
LINE
  5
5E0
330
1F
100
AcDbEntity
  8
0
  6
CONTINUOUS
 62
     7
100
AcDbLine
 10
46.4202891244
 20
212.0248747077
 30
0.0
 11
52.0218630495
 21
215.2589449212
 31
0.0
  0
LINE
  5
5E1
330
1F
100
AcDbEntity
  8
0
  6
CONTINUOUS
 62
     7
100
AcDbLine
 10
54.0218630495
 20
225.6512497666
 30
0.0
 11
71.3423711252
 21
215.6512497666
 31
0.0
  0
LINE
  5
5E2
330
1F
100
AcDbEntity
  8
0
  6
CONTINUOUS
 62
     7
100
AcDbLine
 10
71.3423711252
 20
215.6512497666
 30
0.0
 11
71.3423711252
 21
222.5794529969
 31
0.0
  0
LINE
  5
5E3
330
1F
100
AcDbEntity
  8
0
  6
CONTINUOUS
 62
     7
100
AcDbLine
 10
71.3423711252
 20
222.5794529969
 30
0.0
 11
60.0218630495
 21
229.1153513817
 31
0.0
  0
LINE
  5
5E4
330
1F
100
AcDbEntity
  8
0
  6
CONTINUOUS
 62
     7
100
AcDbLine
 10
60.0218630495
 20
229.1153513817
 30
0.0
 11
60.0218630495
 21
242.1871481515
 31
0.0
  0
LINE
  5
5E5
330
1F
100
AcDbEntity
  8
0
  6
CONTINUOUS
 62
     7
100
AcDbLine
 10
60.0218630495
 20
242.1871481515
 30
0.0
 11
57.3046732657
 21
243.7559184045
 31
0.0
  0
LINE
  5
5E6
330
1F
100
AcDbEntity
  8
0
  6
CONTINUOUS
 62
     7
100
AcDbLine
 10
54.0218630495
 20
237.101676323
 30
0.0
 11
54.0218630495
 21
225.6512497666
 31
0.0
  0
LINE
  5
5E7
330
1F
100
AcDbEntity
  8
0
  6
CONTINUOUS
 62
     7
100
AcDbLine
 10
89.3423711252
 20
212.1871481515
 30
0.0
 11
89.3423711252
 21
225.2589449212
 31
0.0
  0
LINE
  5
5E8
330
1F
100
AcDbEntity
  8
0
  6
CONTINUOUS
 62
     7
100
AcDbLine
 10
89.3423711252
 20
225.2589449212
 30
0.0
 11
83.3423711252
 21
228.7230465363
 31
0.0
  0
LINE
  5
5E9
330
1F
100
AcDbEntity
  8
0
  6
CONTINUOUS
 62
     7
100
AcDbLine
 10
83.3423711252
 20
228.7230465363
 30
0.0
 11
83.3423711252
 21
208.7230465363
 31
0.0
  0
LINE
  5
5EA
330
1F
100
AcDbEntity
  8
0
  6
CONTINUOUS
 62
     7
100
AcDbLine
 10
83.3423711252
 20
208.7230465363
 30
0.0
 11
100.6628792009
 21
198.7230465363
 31
0.0
  0
LINE
  5
5EB
330
1F
100
AcDbEntity
  8
0
  6
CONTINUOUS
 62
     7
100
AcDbLine
 10
100.6628792009
 20
198.7230465363
 30
0.0
 11
100.6628792009
 21
205.6512497666
 31
0.0
  0
LINE
  5
5EC
330
1F
100
AcDbEntity
  8
0
  6
CONTINUOUS
 62
     7
100
AcDbLine
 10
100.6628792009
 20
205.6512497666
 30
0.0
 11
89.3423711252
 21
212.1871481515
 31
0.0
  0
LINE
  5
5ED
330
1F
100
AcDbEntity
  8
0
  6
CONTINUOUS
 62
     7
100
AcDbLine
 10
110.6628792009
 20
215.2589449212
 30
0.0
 11
121.9833872765
 21
208.7230465363
 31
0.0
  0
LINE
  5
5EE
330
1F
100
AcDbEntity
  8
0
  6
CONTINUOUS
 62
     7
100
AcDbLine
 10
121.9833872765
 20
208.7230465363
 30
0.0
 11
127.9833872765
 21
212.1871481515
 31
0.0
  0
LINE
  5
5EF
330
1F
100
AcDbEntity
  8
0
  6
CONTINUOUS
 62
     7
100
AcDbLine
 10
127.9833872765
 20
212.1871481515
 30
0.0
 11
110.6628792009
 21
222.1871481515
 31
0.0
  0
LINE
  5
5F0
330
1F
100
AcDbEntity
  8
0
  6
CONTINUOUS
 62
     7
100
AcDbLine
 10
110.6628792009
 20
222.1871481515
 30
0.0
 11
93.3423711252
 21
212.1871481515
 31
0.0
  0
LINE
  5
5F1
330
1F
100
AcDbEntity
  8
0
  6
CONTINUOUS
 62
     7
100
AcDbLine
 10
93.3423711252
 20
212.1871481515
 30
0.0
 11
99.3423711252
 21
208.7230465363
 31
0.0
  0
LINE
  5
5F2
330
1F
100
AcDbEntity
  8
0
  6
CONTINUOUS
 62
     7
100
AcDbLine
 10
99.3423711252
 20
208.7230465363
 30
0.0
 11
110.6628792009
 21
215.2589449212
 31
0.0
  0
LINE
  5
5F3
330
1F
100
AcDbEntity
  8
0
  6
CONTINUOUS
 62
     7
100
AcDbLine
 10
62.0218630495
 20
198.7230465363
 30
0.0
 11
62.0218630495
 21
205.6512497666
 31
0.0
  0
LINE
  5
5F4
330
1F
100
AcDbEntity
  8
0
  6
CONTINUOUS
 62
     7
100
AcDbLine
 10
79.3423711252
 20
208.7230465363
 30
0.0
 11
62.0218630495
 21
198.7230465363
 31
0.0
  0
LINE
  5
5F5
330
1F
100
AcDbEntity
  8
0
  6
CONTINUOUS
 62
     7
100
AcDbLine
 10
79.3423711252
 20
228.7230465363
 30
0.0
 11
79.3423711252
 21
208.7230465363
 31
0.0
  0
LINE
  5
5F6
330
1F
100
AcDbEntity
  8
0
  6
CONTINUOUS
 62
     7
100
AcDbLine
 10
73.3423711252
 20
225.2589449212
 30
0.0
 11
79.3423711252
 21
228.7230465363
 31
0.0
  0
LINE
  5
5F7
330
1F
100
AcDbEntity
  8
0
  6
CONTINUOUS
 62
     7
100
AcDbLine
 10
73.3423711252
 20
212.1871481515
 30
0.0
 11
73.3423711252
 21
225.2589449212
 31
0.0
  0
LINE
  5
5F8
330
1F
100
AcDbEntity
  8
0
  6
CONTINUOUS
 62
     7
100
AcDbLine
 10
62.0218630495
 20
205.6512497666
 30
0.0
 11
73.3423711252
 21
212.1871481515
 31
0.0
  0
LINE
  5
5F9
330
1F
100
AcDbEntity
  8
0
  6
CONTINUOUS
 62
     7
100
AcDbLine
 10
60.0218630495
 20
195.2617578423
 30
0.0
 11
60.0218630495
 21
208.333554612
 31
0.0
  0
LINE
  5
5FA
330
1F
100
AcDbEntity
  8
0
  6
CONTINUOUS
 62
     7
100
AcDbLine
 10
60.0218630495
 20
208.333554612
 30
0.0
 11
54.0218630495
 21
211.7976562271
 31
0.0
  0
LINE
  5
5FB
330
1F
100
AcDbEntity
  8
0
  6
CONTINUOUS
 62
     7
100
AcDbLine
 10
54.0218630495
 20
211.7976562271
 30
0.0
 11
54.0218630495
 21
191.7976562271
 31
0.0
  0
LINE
  5
5FC
330
1F
100
AcDbEntity
  8
0
  6
CONTINUOUS
 62
     7
100
AcDbLine
 10
54.0218630495
 20
191.7976562271
 30
0.0
 11
71.3423711252
 21
181.7976562271
 31
0.0
  0
LINE
  5
5FD
330
1F
100
AcDbEntity
  8
0
  6
CONTINUOUS
 62
     7
100
AcDbLine
 10
71.3423711252
 20
181.7976562271
 30
0.0
 11
71.3423711252
 21
188.7258594574
 31
0.0
  0
LINE
  5
5FE
330
1F
100
AcDbEntity
  8
0
  6
CONTINUOUS
 62
     7
100
AcDbLine
 10
71.3423711252
 20
188.7258594574
 30
0.0
 11
60.0218630495
 21
195.2617578423
 31
0.0
  0
LINE
  5
5FF
330
1F
100
AcDbEntity
  8
0
  6
CONTINUOUS
 62
     7
100
AcDbLine
 10
79.3423711252
 20
127.1594529969
 30
0.0
 11
79.3423711252
 21
118.333379536
 31
0.0
  0
LINE
  5
600
330
1F
100
AcDbEntity
  8
0
  6
CONTINUOUS
 62
     7
100
AcDbLine
 10
73.6172691026
 20
123.854063803
 30
0.0
 11
79.3423711252
 21
127.1594529969
 31
0.0
  0
LINE
  5
601
330
1F
100
AcDbEntity
  8
0
  6
CONTINUOUS
 62
     7
100
AcDbLine
 10
81.3423711252
 20
130.6207416909
 30
0.0
 11
92.6628792009
 21
124.084843306
 31
0.0
  0
LINE
  5
602
330
1F
100
AcDbEntity
  8
0
  6
CONTINUOUS
 62
     7
100
AcDbLine
 10
92.6628792009
 20
124.084843306
 30
0.0
 11
98.6628792009
 21
127.5489449212
 31
0.0
  0
LINE
  5
603
330
1F
100
AcDbEntity
  8
0
  6
CONTINUOUS
 62
     7
100
AcDbLine
 10
98.6628792009
 20
127.5489449212
 30
0.0
 11
81.3423711252
 21
137.5489449212
 31
0.0
  0
LINE
  5
604
330
1F
100
AcDbEntity
  8
0
  6
CONTINUOUS
 62
     7
100
AcDbLine
 10
81.3423711252
 20
137.5489449212
 30
0.0
 11
68.2034710492
 21
129.9631974255
 31
0.0
  0
LINE
  5
605
330
1F
100
AcDbEntity
  8
0
  6
CONTINUOUS
 62
     7
100
AcDbLine
 10
72.2111055926
 20
125.3488030776
 30
0.0
 11
81.3423711252
 21
130.6207416909
 31
0.0
  0
LINE
  5
606
330
1F
100
AcDbEntity
  8
0
  6
CONTINUOUS
 62
     7
100
AcDbLine
 10
129.6720110254
 20
90.8138745122
 30
0.0
 11
139.9833885619
 21
96.7671511087
 31
0.0
  0
LINE
  5
607
330
1F
100
AcDbEntity
  8
0
  6
CONTINUOUS
 62
     7
100
AcDbLine
 10
139.9833885619
 20
96.7671511087
 30
0.0
 11
151.303894249
 21
90.2312516775
 31
0.0
  0
LINE
  5
608
330
1F
100
AcDbEntity
  8
0
  6
CONTINUOUS
 62
     7
100
AcDbLine
 10
151.303894249
 20
90.2312516775
 30
0.0
 11
157.3038964555
 21
93.6953545666
 31
0.0
  0
LINE
  5
609
330
1F
100
AcDbEntity
  8
0
  6
CONTINUOUS
 62
     7
100
AcDbLine
 10
157.3038964555
 20
93.6953545666
 30
0.0
 11
139.9833889314
 21
103.6953542481
 31
0.0
  0
LINE
  5
60A
330
1F
100
AcDbEntity
  8
0
  6
CONTINUOUS
 62
     7
100
AcDbLine
 10
139.9833889314
 20
103.6953542481
 30
0.0
 11
122.8798297692
 21
93.8206097617
 31
0.0
  0
LINE
  5
60B
330
1F
100
AcDbEntity
  8
0
  6
CONTINUOUS
 62
     7
100
AcDbLine
 10
118.6628792009
 20
106.7671481515
 30
0.0
 11
112.6628792009
 21
110.2312497666
 31
0.0
  0
LINE
  5
60C
330
1F
100
AcDbEntity
  8
0
  6
CONTINUOUS
 62
     7
100
AcDbLine
 10
112.6628792009
 20
110.2312497666
 30
0.0
 11
112.6628792009
 21
98.5515485307
 31
0.0
  0
LINE
  5
60D
330
1F
100
AcDbEntity
  8
0
  6
CONTINUOUS
 62
     7
100
AcDbLine
 10
118.6628792009
 20
95.7426509093
 30
0.0
 11
118.6628792009
 21
106.7671481515
 31
0.0
  0
LINE
  5
60E
330
1F
100
AcDbEntity
  8
0
  6
CONTINUOUS
 62
     7
100
AcDbLine
 10
110.6628792009
 20
113.6953513817
 30
0.0
 11
121.9833872765
 21
107.1594529969
 31
0.0
  0
LINE
  5
60F
330
1F
100
AcDbEntity
  8
0
  6
CONTINUOUS
 62
     7
100
AcDbLine
 10
121.9833872765
 20
107.1594529969
 30
0.0
 11
127.9833872765
 21
110.623554612
 31
0.0
  0
LINE
  5
610
330
1F
100
AcDbEntity
  8
0
  6
CONTINUOUS
 62
     7
100
AcDbLine
 10
127.9833872765
 20
110.623554612
 30
0.0
 11
110.6628792009
 21
120.623554612
 31
0.0
  0
LINE
  5
611
330
1F
100
AcDbEntity
  8
0
  6
CONTINUOUS
 62
     7
100
AcDbLine
 10
110.6628792009
 20
120.623554612
 30
0.0
 11
93.3423711252
 21
110.623554612
 31
0.0
  0
LINE
  5
612
330
1F
100
AcDbEntity
  8
0
  6
CONTINUOUS
 62
     7
100
AcDbLine
 10
93.3423711252
 20
110.623554612
 30
0.0
 11
99.3423711252
 21
107.1594529969
 31
0.0
  0
LINE
  5
613
330
1F
100
AcDbEntity
  8
0
  6
CONTINUOUS
 62
     7
100
AcDbLine
 10
99.3423711252
 20
107.1594529969
 30
0.0
 11
110.6628792009
 21
113.6953513817
 31
0.0
  0
LINE
  5
614
330
1F
100
AcDbEntity
  8
0
  6
CONTINUOUS
 62
     7
100
AcDbLine
 10
89.3423711252
 20
110.623554612
 30
0.0
 11
89.3423711252
 21
123.6953513817
 31
0.0
  0
LINE
  5
615
330
1F
100
AcDbEntity
  8
0
  6
CONTINUOUS
 62
     7
100
AcDbLine
 10
89.3423711252
 20
123.6953513817
 30
0.0
 11
83.3423711252
 21
127.1594529969
 31
0.0
  0
LINE
  5
616
330
1F
100
AcDbEntity
  8
0
  6
CONTINUOUS
 62
     7
100
AcDbLine
 10
83.3423711252
 20
127.1594529969
 30
0.0
 11
83.3423711252
 21
114.9437097017
 31
0.0
  0
LINE
  5
617
330
1F
100
AcDbEntity
  8
0
  6
CONTINUOUS
 62
     7
100
AcDbLine
 10
83.3423711252
 20
114.9437097017
 30
0.0
 11
89.3423711252
 21
110.623554612
 31
0.0
  0
LINE
  5
618
330
1F
100
AcDbEntity
  8
0
  6
CONTINUOUS
 62
     7
100
AcDbLine
 10
137.9833872765
 20
93.3030465363
 30
0.0
 11
137.9833872765
 21
87.2816677284
 31
0.0
  0
LINE
  5
619
330
1F
100
AcDbEntity
  8
0
  6
CONTINUOUS
 62
     7
100
AcDbLine
 10
131.9833872765
 20
89.8389449212
 30
0.0
 11
137.9833872765
 21
93.3030465363
 31
0.0
  0
LINE
  5
61A
330
1F
100
AcDbEntity
  8
0
  6
CONTINUOUS
 62
     7
100
AcDbLine
 10
131.9833872765
 20
89.8154538322
 30
0.0
 11
131.9833872765
 21
89.8389449212
 31
0.0
  0
LINE
  5
61B
330
1F
100
AcDbEntity
  8
0
  6
CONTINUOUS
 62
     7
100
AcDbLine
 10
167.3038953522
 20
110.2312497666
 30
0.0
 11
167.3038953522
 21
96.3685527753
 31
0.0
  0
LINE
  5
61C
330
1F
100
AcDbEntity
  8
0
  6
CONTINUOUS
 62
     7
100
AcDbLine
 10
161.3038953522
 20
106.7671481515
 30
0.0
 11
167.3038953522
 21
110.2312497666
 31
0.0
  0
LINE
  5
61D
330
1F
100
AcDbEntity
  8
0
  6
CONTINUOUS
 62
     7
100
AcDbLine
 10
161.3038953522
 20
93.6953539296
 30
0.0
 11
161.3038953522
 21
106.7671481515
 31
0.0
  0
LINE
  5
61E
330
1F
100
AcDbEntity
  8
0
  6
CONTINUOUS
 62
     7
100
AcDbLine
 10
149.9833861733
 20
87.1594549078
 30
0.0
 11
161.3038953522
 21
93.6953539296
 31
0.0
  0
LINE
  5
61F
330
1F
100
AcDbEntity
  8
0
  6
CONTINUOUS
 62
     7
100
AcDbLine
 10
149.9833872765
 20
84.4089191415
 30
0.0
 11
149.9833861733
 21
87.1594549078
 31
0.0
  0
LINE
  5
620
330
1F
100
AcDbEntity
  8
0
  6
CONTINUOUS
 62
     7
100
AcDbLine
 10
118.6628792009
 20
127.5517578423
 30
0.0
 11
118.6628792009
 21
140.623554612
 31
0.0
  0
LINE
  5
621
330
1F
100
AcDbEntity
  8
0
  6
CONTINUOUS
 62
     7
100
AcDbLine
 10
118.6628792009
 20
140.623554612
 30
0.0
 11
112.6628792009
 21
144.0876562271
 31
0.0
  0
LINE
  5
622
330
1F
100
AcDbEntity
  8
0
  6
CONTINUOUS
 62
     7
100
AcDbLine
 10
112.6628792009
 20
144.0876562271
 30
0.0
 11
112.6628792009
 21
124.0876562271
 31
0.0
  0
LINE
  5
623
330
1F
100
AcDbEntity
  8
0
  6
CONTINUOUS
 62
     7
100
AcDbLine
 10
112.6628792009
 20
124.0876562271
 30
0.0
 11
129.9833872765
 21
114.0876562271
 31
0.0
  0
LINE
  5
624
330
1F
100
AcDbEntity
  8
0
  6
CONTINUOUS
 62
     7
100
AcDbLine
 10
129.9833872765
 20
114.0876562271
 30
0.0
 11
129.9833872765
 21
121.0158594574
 31
0.0
  0
LINE
  5
625
330
1F
100
AcDbEntity
  8
0
  6
CONTINUOUS
 62
     7
100
AcDbLine
 10
129.9833872765
 20
121.0158594574
 30
0.0
 11
118.6628792009
 21
127.5517578423
 31
0.0
  0
LINE
  5
626
330
1F
100
AcDbEntity
  8
0
  6
CONTINUOUS
 62
     7
100
AcDbLine
 10
120.6628792009
 20
97.1594529969
 30
0.0
 11
120.6628792009
 21
104.0876562271
 31
0.0
  0
LINE
  5
627
330
1F
100
AcDbEntity
  8
0
  6
CONTINUOUS
 62
     7
100
AcDbLine
 10
137.9833872765
 20
107.1594529969
 30
0.0
 11
120.6628792009
 21
97.1594529969
 31
0.0
  0
LINE
  5
628
330
1F
100
AcDbEntity
  8
0
  6
CONTINUOUS
 62
     7
100
AcDbLine
 10
137.9833872765
 20
127.1594529969
 30
0.0
 11
137.9833872765
 21
107.1594529969
 31
0.0
  0
LINE
  5
629
330
1F
100
AcDbEntity
  8
0
  6
CONTINUOUS
 62
     7
100
AcDbLine
 10
131.9833872765
 20
123.6953513817
 30
0.0
 11
137.9833872765
 21
127.1594529969
 31
0.0
  0
LINE
  5
62A
330
1F
100
AcDbEntity
  8
0
  6
CONTINUOUS
 62
     7
100
AcDbLine
 10
131.9833872765
 20
110.623554612
 30
0.0
 11
131.9833872765
 21
123.6953513817
 31
0.0
  0
LINE
  5
62B
330
1F
100
AcDbEntity
  8
0
  6
CONTINUOUS
 62
     7
100
AcDbLine
 10
120.6628792009
 20
104.0876562271
 30
0.0
 11
131.9833872765
 21
110.623554612
 31
0.0
  0
LINE
  5
62C
330
1F
100
AcDbEntity
  8
0
  6
CONTINUOUS
 62
     7
100
AcDbLine
 10
62.0218636011
 20
164.8694520414
 30
0.0
 11
62.0218636011
 21
171.7976552717
 31
0.0
  0
LINE
  5
62D
330
1F
100
AcDbEntity
  8
0
  6
CONTINUOUS
 62
     7
100
AcDbLine
 10
79.3423711252
 20
174.8694529969
 30
0.0
 11
62.0218636011
 21
164.8694520414
 31
0.0
  0
LINE
  5
62E
330
1F
100
AcDbEntity
  8
0
  6
CONTINUOUS
 62
     7
100
AcDbLine
 10
79.3423711252
 20
194.8694517229
 30
0.0
 11
79.3423711252
 21
174.8694529969
 31
0.0
  0
LINE
  5
62F
330
1F
100
AcDbEntity
  8
0
  6
CONTINUOUS
 62
     7
100
AcDbLine
 10
73.3423716768
 20
191.4053504263
 30
0.0
 11
79.3423711252
 21
194.8694517229
 31
0.0
  0
LINE
  5
630
330
1F
100
AcDbEntity
  8
0
  6
CONTINUOUS
 62
     7
100
AcDbLine
 10
73.3423716768
 20
178.3335536565
 30
0.0
 11
73.3423716768
 21
191.4053504263
 31
0.0
  0
LINE
  5
631
330
1F
100
AcDbEntity
  8
0
  6
CONTINUOUS
 62
     7
100
AcDbLine
 10
62.0218636011
 20
171.7976552717
 30
0.0
 11
73.3423716768
 21
178.3335536565
 31
0.0
  0
LINE
  5
632
330
1F
100
AcDbEntity
  8
0
  6
CONTINUOUS
 62
     7
100
AcDbLine
 10
540.6960859072
 20
266.4330465363
 30
0.0
 11
540.6960859072
 21
273.3612497666
 31
0.0
  0
LINE
  5
633
330
1F
100
AcDbEntity
  8
0
  6
CONTINUOUS
 62
     7
100
AcDbLine
 10
558.0165939829
 20
276.4330465363
 30
0.0
 11
540.6960859072
 21
266.4330465363
 31
0.0
  0
LINE
  5
634
330
1F
100
AcDbEntity
  8
0
  6
CONTINUOUS
 62
     7
100
AcDbLine
 10
558.0165939829
 20
296.4330427145
 30
0.0
 11
558.0165939829
 21
276.4330465363
 31
0.0
  0
LINE
  5
635
330
1F
100
AcDbEntity
  8
0
  6
CONTINUOUS
 62
     7
100
AcDbLine
 10
552.0165939829
 20
292.9689410994
 30
0.0
 11
558.0165939829
 21
296.4330427145
 31
0.0
  0
LINE
  5
636
330
1F
100
AcDbEntity
  8
0
  6
CONTINUOUS
 62
     7
100
AcDbLine
 10
552.0165939829
 20
279.8971443296
 30
0.0
 11
552.0165939829
 21
292.9689410994
 31
0.0
  0
LINE
  5
637
330
1F
100
AcDbEntity
  8
0
  6
CONTINUOUS
 62
     7
100
AcDbLine
 10
540.6960859072
 20
273.3612497666
 30
0.0
 11
552.0165939829
 21
279.8971443296
 31
0.0
  0
LINE
  5
638
330
1F
100
AcDbEntity
  8
0
  6
CONTINUOUS
 62
     7
100
AcDbLine
 10
597.3371020586
 20
276.0435520641
 30
0.0
 11
591.3371020586
 21
279.5076536793
 31
0.0
  0
LINE
  5
639
330
1F
100
AcDbEntity
  8
0
  6
CONTINUOUS
 62
     7
100
AcDbLine
 10
591.3371020586
 20
279.5076536793
 30
0.0
 11
591.3371020586
 21
259.5076536793
 31
0.0
  0
LINE
  5
63A
330
1F
100
AcDbEntity
  8
0
  6
CONTINUOUS
 62
     7
100
AcDbLine
 10
591.3371020586
 20
259.5076536793
 30
0.0
 11
608.6576101342
 21
249.5076536793
 31
0.0
  0
LINE
  5
63B
330
1F
100
AcDbEntity
  8
0
  6
CONTINUOUS
 62
     7
100
AcDbLine
 10
608.6576101342
 20
249.5076536793
 30
0.0
 11
608.6576101342
 21
256.4358569095
 31
0.0
  0
LINE
  5
63C
330
1F
100
AcDbEntity
  8
0
  6
CONTINUOUS
 62
     7
100
AcDbLine
 10
608.6576101342
 20
256.4358569095
 30
0.0
 11
597.3371020586
 21
262.9717552944
 31
0.0
  0
LINE
  5
63D
330
1F
100
AcDbEntity
  8
0
  6
CONTINUOUS
 62
     7
100
AcDbLine
 10
597.3371020586
 20
262.9717552944
 30
0.0
 11
597.3371020586
 21
276.0435520641
 31
0.0
  0
LINE
  5
63E
330
1F
100
AcDbEntity
  8
0
  6
CONTINUOUS
 62
     7
100
AcDbLine
 10
589.3371020586
 20
256.0435520641
 30
0.0
 11
606.6576101342
 21
246.0435520641
 31
0.0
  0
LINE
  5
63F
330
1F
100
AcDbEntity
  8
0
  6
CONTINUOUS
 62
     7
100
AcDbLine
 10
572.0165939829
 20
246.0435520641
 30
0.0
 11
589.3371020586
 21
256.0435520641
 31
0.0
  0
LINE
  5
640
330
1F
100
AcDbEntity
  8
0
  6
CONTINUOUS
 62
     7
100
AcDbLine
 10
578.0165939829
 20
242.579450449
 30
0.0
 11
572.0165939829
 21
246.0435520641
 31
0.0
  0
LINE
  5
641
330
1F
100
AcDbEntity
  8
0
  6
CONTINUOUS
 62
     7
100
AcDbLine
 10
589.3371020586
 20
249.1153488338
 30
0.0
 11
578.0165939829
 21
242.579450449
 31
0.0
  0
LINE
  5
642
330
1F
100
AcDbEntity
  8
0
  6
CONTINUOUS
 62
     7
100
AcDbLine
 10
600.6576101342
 20
242.579450449
 30
0.0
 11
589.3371020586
 21
249.1153488338
 31
0.0
  0
LINE
  5
643
330
1F
100
AcDbEntity
  8
0
  6
CONTINUOUS
 62
     7
100
AcDbLine
 10
606.6576101342
 20
246.0435520641
 30
0.0
 11
600.6576101342
 21
242.579450449
 31
0.0
  0
LINE
  5
644
330
1F
100
AcDbEntity
  8
0
  6
CONTINUOUS
 62
     7
100
AcDbLine
 10
628.6576101342
 20
256.4358594574
 30
0.0
 11
632.7795150252
 21
258.8156423558
 31
0.0
  0
LINE
  5
645
330
1F
100
AcDbEntity
  8
0
  6
CONTINUOUS
 62
     7
100
AcDbLine
 10
628.6576101342
 20
249.5076562271
 30
0.0
 11
628.6576101342
 21
256.4358594574
 31
0.0
  0
LINE
  5
646
330
1F
100
AcDbEntity
  8
0
  6
CONTINUOUS
 62
     7
100
AcDbLine
 10
636.3909640343
 20
253.9725101831
 30
0.0
 11
628.6576101342
 21
249.5076562271
 31
0.0
  0
LINE
  5
647
330
1F
100
AcDbEntity
  8
0
  6
CONTINUOUS
 62
     7
100
AcDbLine
 10
626.657609031
 20
259.1153494708
 30
0.0
 11
620.6576101342
 21
262.579450449
 31
0.0
  0
LINE
  5
648
330
1F
100
AcDbEntity
  8
0
  6
CONTINUOUS
 62
     7
100
AcDbLine
 10
620.6576101342
 20
262.579450449
 30
0.0
 11
620.6576101343
 21
242.5794529969
 31
0.0
  0
LINE
  5
649
330
1F
100
AcDbEntity
  8
0
  6
CONTINUOUS
 62
     7
100
AcDbLine
 10
620.6576101343
 20
242.5794529969
 30
0.0
 11
637.9781171067
 21
232.579451086
 31
0.0
  0
LINE
  5
64A
330
1F
100
AcDbEntity
  8
0
  6
CONTINUOUS
 62
     7
100
AcDbLine
 10
637.9781171067
 20
232.579451086
 30
0.0
 11
637.9781171067
 21
239.5076543162
 31
0.0
  0
LINE
  5
64B
330
1F
100
AcDbEntity
  8
0
  6
CONTINUOUS
 62
     7
100
AcDbLine
 10
637.9781171067
 20
239.5076543162
 30
0.0
 11
626.657609031
 21
246.0435527011
 31
0.0
  0
LINE
  5
64C
330
1F
100
AcDbEntity
  8
0
  6
CONTINUOUS
 62
     7
100
AcDbLine
 10
626.657609031
 20
246.0435527011
 30
0.0
 11
626.657609031
 21
259.1153494708
 31
0.0
  0
LINE
  5
64D
330
1F
100
AcDbEntity
  8
0
  6
CONTINUOUS
 62
     7
100
AcDbLine
 10
542.6960848039
 20
296.8253507448
 30
0.0
 11
556.5645049498
 21
304.8322868492
 31
0.0
  0
LINE
  5
64E
330
1F
100
AcDbEntity
  8
0
  6
CONTINUOUS
 62
     7
100
AcDbLine
 10
548.6960870104
 20
293.3612478557
 30
0.0
 11
542.6960848039
 21
296.8253507448
 31
0.0
  0
LINE
  5
64F
330
1F
100
AcDbEntity
  8
0
  6
CONTINUOUS
 62
     7
100
AcDbLine
 10
560.0165926975
 20
299.8971472868
 30
0.0
 11
548.6960870104
 21
293.3612478557
 31
0.0
  0
LINE
  5
650
330
1F
100
AcDbEntity
  8
0
  6
CONTINUOUS
 62
     7
100
AcDbLine
 10
571.3371013628
 20
293.3612485615
 30
0.0
 11
560.0165926975
 21
299.8971472868
 31
0.0
  0
LINE
  5
651
330
1F
100
AcDbEntity
  8
0
  6
CONTINUOUS
 62
     7
100
AcDbLine
 10
576.6133816208
 20
296.4075103888
 30
0.0
 11
571.3371013628
 21
293.3612485615
 31
0.0
  0
LINE
  5
652
330
1F
100
AcDbEntity
  8
0
  6
CONTINUOUS
 62
     7
100
AcDbLine
 10
587.3371020586
 20
259.5076536793
 30
0.0
 11
570.0165939829
 21
249.5076536793
 31
0.0
  0
LINE
  5
653
330
1F
100
AcDbEntity
  8
0
  6
CONTINUOUS
 62
     7
100
AcDbLine
 10
587.3371020586
 20
279.5076536793
 30
0.0
 11
587.3371020586
 21
259.5076536793
 31
0.0
  0
LINE
  5
654
330
1F
100
AcDbEntity
  8
0
  6
CONTINUOUS
 62
     7
100
AcDbLine
 10
581.3371020586
 20
276.0435520641
 30
0.0
 11
587.3371020586
 21
279.5076536793
 31
0.0
  0
LINE
  5
655
330
1F
100
AcDbEntity
  8
0
  6
CONTINUOUS
 62
     7
100
AcDbLine
 10
581.3371020586
 20
262.9717552944
 30
0.0
 11
581.3371020586
 21
276.0435520641
 31
0.0
  0
LINE
  5
656
330
1F
100
AcDbEntity
  8
0
  6
CONTINUOUS
 62
     7
100
AcDbLine
 10
570.0165939829
 20
256.4358569095
 30
0.0
 11
581.3371020586
 21
262.9717552944
 31
0.0
  0
LINE
  5
657
330
1F
100
AcDbEntity
  8
0
  6
CONTINUOUS
 62
     7
100
AcDbLine
 10
570.0165939829
 20
249.5076536793
 30
0.0
 11
570.0165939829
 21
256.4358569095
 31
0.0
  0
LINE
  5
658
330
1F
100
AcDbEntity
  8
0
  6
CONTINUOUS
 62
     7
100
AcDbLine
 10
545.5092607631
 20
150.5435598143
 30
0.0
 11
550.0165923072
 21
147.9412497666
 31
0.0
  0
LINE
  5
659
330
1F
100
AcDbEntity
  8
0
  6
CONTINUOUS
 62
     7
100
AcDbLine
 10
550.0165923072
 20
147.9412497666
 30
0.0
 11
550.0165950861
 21
154.8694536338
 31
0.0
  0
LINE
  5
65A
330
1F
100
AcDbEntity
  8
0
  6
CONTINUOUS
 62
     7
100
AcDbLine
 10
550.0165950861
 20
154.8694536338
 30
0.0
 11
546.8117621405
 21
156.7197647977
 31
0.0
  0
LINE
  5
65B
330
1F
100
AcDbEntity
  8
0
  6
CONTINUOUS
 62
     7
100
AcDbLine
 10
544.5414990961
 20
146.4834951198
 30
0.0
 11
548.0165939829
 21
144.4771481515
 31
0.0
  0
LINE
  5
65C
330
1F
100
AcDbEntity
  8
0
  6
CONTINUOUS
 62
     7
100
AcDbLine
 10
548.0165939829
 20
144.4771481515
 30
0.0
 11
543.3006824407
 21
141.7544153531
 31
0.0
  0
LINE
  5
65D
330
1F
100
AcDbEntity
  8
0
  6
CONTINUOUS
 62
     7
100
AcDbLine
 10
558.0165939829
 20
141.0130465363
 30
0.0
 11
540.6960859072
 21
131.0130465363
 31
0.0
  0
LINE
  5
65E
330
1F
100
AcDbEntity
  8
0
  6
CONTINUOUS
 62
     7
100
AcDbLine
 10
558.0165939829
 20
161.0130452624
 30
0.0
 11
558.0165939829
 21
141.0130465363
 31
0.0
  0
LINE
  5
65F
330
1F
100
AcDbEntity
  8
0
  6
CONTINUOUS
 62
     7
100
AcDbLine
 10
552.0165939829
 20
157.5489436472
 30
0.0
 11
558.0165939829
 21
161.0130452624
 31
0.0
  0
LINE
  5
660
330
1F
100
AcDbEntity
  8
0
  6
CONTINUOUS
 62
     7
100
AcDbLine
 10
552.0165939829
 20
144.4771468775
 30
0.0
 11
552.0165939829
 21
157.5489436472
 31
0.0
  0
LINE
  5
661
330
1F
100
AcDbEntity
  8
0
  6
CONTINUOUS
 62
     7
100
AcDbLine
 10
542.518925724
 20
138.9936668255
 30
0.0
 11
552.0165939829
 21
144.4771468775
 31
0.0
  0
LINE
  5
662
330
1F
100
AcDbEntity
  8
0
  6
CONTINUOUS
 62
     7
100
AcDbLine
 10
540.6960859072
 20
131.0130465363
 30
0.0
 11
540.6960859072
 21
133.0706132569
 31
0.0
  0
LINE
  5
663
330
1F
100
AcDbEntity
  8
0
  6
CONTINUOUS
 62
     7
100
AcDbLine
 10
568.0165939829
 20
157.5489436472
 30
0.0
 11
562.0165939829
 21
161.0130452624
 31
0.0
  0
LINE
  5
664
330
1F
100
AcDbEntity
  8
0
  6
CONTINUOUS
 62
     7
100
AcDbLine
 10
562.0165939829
 20
161.0130452624
 30
0.0
 11
562.0165939829
 21
141.0130465363
 31
0.0
  0
LINE
  5
665
330
1F
100
AcDbEntity
  8
0
  6
CONTINUOUS
 62
     7
100
AcDbLine
 10
562.0165939829
 20
141.0130465363
 30
0.0
 11
579.3371020586
 21
131.0130465363
 31
0.0
  0
LINE
  5
666
330
1F
100
AcDbEntity
  8
0
  6
CONTINUOUS
 62
     7
100
AcDbLine
 10
579.3371020586
 20
131.0130465363
 30
0.0
 11
579.3371020586
 21
137.9412497666
 31
0.0
  0
LINE
  5
667
330
1F
100
AcDbEntity
  8
0
  6
CONTINUOUS
 62
     7
100
AcDbLine
 10
579.3371020586
 20
137.9412497666
 30
0.0
 11
568.0165939829
 21
144.4771481515
 31
0.0
  0
LINE
  5
668
330
1F
100
AcDbEntity
  8
0
  6
CONTINUOUS
 62
     7
100
AcDbLine
 10
568.0165939829
 20
144.4771481515
 30
0.0
 11
568.0165939829
 21
157.5489436472
 31
0.0
  0
LINE
  5
669
330
1F
100
AcDbEntity
  8
0
  6
CONTINUOUS
 62
     7
100
AcDbLine
 10
637.777567813
 20
138.0570375922
 30
0.0
 11
626.6576101342
 21
144.4771481515
 31
0.0
  0
LINE
  5
66A
330
1F
100
AcDbEntity
  8
0
  6
CONTINUOUS
 62
     7
100
AcDbLine
 10
626.6576101342
 20
144.4771481515
 30
0.0
 11
626.6576101342
 21
157.5489449212
 31
0.0
  0
LINE
  5
66B
330
1F
100
AcDbEntity
  8
0
  6
CONTINUOUS
 62
     7
100
AcDbLine
 10
626.6576101342
 20
157.5489449212
 30
0.0
 11
620.6576101342
 21
161.0130465363
 31
0.0
  0
LINE
  5
66C
330
1F
100
AcDbEntity
  8
0
  6
CONTINUOUS
 62
     7
100
AcDbLine
 10
620.6576101342
 20
161.0130465363
 30
0.0
 11
620.6576101342
 21
141.0130465363
 31
0.0
  0
LINE
  5
66D
330
1F
100
AcDbEntity
  8
0
  6
CONTINUOUS
 62
     7
100
AcDbLine
 10
620.6576101342
 20
141.0130465363
 30
0.0
 11
634.2922090275
 21
133.141107195
 31
0.0
  0
LINE
  5
66E
330
1F
100
AcDbEntity
  8
0
  6
CONTINUOUS
 62
     7
100
AcDbLine
 10
618.6576101342
 20
137.5489449212
 30
0.0
 11
631.7965102102
 21
129.9631974255
 31
0.0
  0
LINE
  5
66F
330
1F
100
AcDbEntity
  8
0
  6
CONTINUOUS
 62
     7
100
AcDbLine
 10
601.3371020586
 20
127.5489449212
 30
0.0
 11
618.6576101342
 21
137.5489449212
 31
0.0
  0
LINE
  5
670
330
1F
100
AcDbEntity
  8
0
  6
CONTINUOUS
 62
     7
100
AcDbLine
 10
607.3371020586
 20
124.084843306
 30
0.0
 11
601.3371020586
 21
127.5489449212
 31
0.0
  0
LINE
  5
671
330
1F
100
AcDbEntity
  8
0
  6
CONTINUOUS
 62
     7
100
AcDbLine
 10
618.6576101342
 20
130.6207416909
 30
0.0
 11
607.3371020586
 21
124.084843306
 31
0.0
  0
LINE
  5
672
330
1F
100
AcDbEntity
  8
0
  6
CONTINUOUS
 62
     7
100
AcDbLine
 10
627.7888756668
 20
125.3488030776
 30
0.0
 11
618.6576101342
 21
130.6207416909
 31
0.0
  0
LINE
  5
673
330
1F
100
AcDbEntity
  8
0
  6
CONTINUOUS
 62
     7
100
AcDbLine
 10
587.3371020586
 20
191.7976549532
 30
0.0
 11
570.0165939829
 21
181.7976549532
 31
0.0
  0
LINE
  5
674
330
1F
100
AcDbEntity
  8
0
  6
CONTINUOUS
 62
     7
100
AcDbLine
 10
587.3371020586
 20
211.7976549532
 30
0.0
 11
587.3371020586
 21
191.7976549532
 31
0.0
  0
LINE
  5
675
330
1F
100
AcDbEntity
  8
0
  6
CONTINUOUS
 62
     7
100
AcDbLine
 10
581.3371020586
 20
208.3335533381
 30
0.0
 11
587.3371020586
 21
211.7976549532
 31
0.0
  0
LINE
  5
676
330
1F
100
AcDbEntity
  8
0
  6
CONTINUOUS
 62
     7
100
AcDbLine
 10
581.3371020586
 20
195.2617565683
 30
0.0
 11
581.3371020586
 21
208.3335533381
 31
0.0
  0
LINE
  5
677
330
1F
100
AcDbEntity
  8
0
  6
CONTINUOUS
 62
     7
100
AcDbLine
 10
570.0165939829
 20
188.7258581835
 30
0.0
 11
581.3371020586
 21
195.2617565683
 31
0.0
  0
LINE
  5
678
330
1F
100
AcDbEntity
  8
0
  6
CONTINUOUS
 62
     7
100
AcDbLine
 10
570.0165939829
 20
181.7976549532
 30
0.0
 11
570.0165939829
 21
188.7258581835
 31
0.0
  0
LINE
  5
679
330
1F
100
AcDbEntity
  8
0
  6
CONTINUOUS
 62
     7
100
AcDbLine
 10
589.3371020586
 20
154.4771481515
 30
0.0
 11
606.6576101342
 21
144.4771481515
 31
0.0
  0
LINE
  5
67A
330
1F
100
AcDbEntity
  8
0
  6
CONTINUOUS
 62
     7
100
AcDbLine
 10
572.0165939829
 20
144.4771481515
 30
0.0
 11
589.3371020586
 21
154.4771481515
 31
0.0
  0
LINE
  5
67B
330
1F
100
AcDbEntity
  8
0
  6
CONTINUOUS
 62
     7
100
AcDbLine
 10
578.0165939829
 20
141.0130465363
 30
0.0
 11
572.0165939829
 21
144.4771481515
 31
0.0
  0
LINE
  5
67C
330
1F
100
AcDbEntity
  8
0
  6
CONTINUOUS
 62
     7
100
AcDbLine
 10
589.3371020586
 20
147.5489449212
 30
0.0
 11
578.0165939829
 21
141.0130465363
 31
0.0
  0
LINE
  5
67D
330
1F
100
AcDbEntity
  8
0
  6
CONTINUOUS
 62
     7
100
AcDbLine
 10
600.6576101342
 20
141.0130465363
 30
0.0
 11
589.3371020586
 21
147.5489449212
 31
0.0
  0
LINE
  5
67E
330
1F
100
AcDbEntity
  8
0
  6
CONTINUOUS
 62
     7
100
AcDbLine
 10
606.6576101342
 20
144.4771481515
 30
0.0
 11
600.6576101342
 21
141.0130465363
 31
0.0
  0
LINE
  5
67F
330
1F
100
AcDbEntity
  8
0
  6
CONTINUOUS
 62
     7
100
AcDbLine
 10
550.0165950861
 20
114.0876581381
 30
0.0
 11
550.0165950861
 21
121.0158613683
 31
0.0
  0
LINE
  5
680
330
1F
100
AcDbEntity
  8
0
  6
CONTINUOUS
 62
     7
100
AcDbLine
 10
550.0165950861
 20
121.0158613683
 30
0.0
 11
538.7943892833
 21
127.4950023616
 31
0.0
  0
LINE
  5
681
330
1F
100
AcDbEntity
  8
0
  6
CONTINUOUS
 62
     7
100
AcDbLine
 10
536.6598200206
 20
121.7991958176
 30
0.0
 11
550.0165950861
 21
114.0876581381
 31
0.0
  0
LINE
  5
682
330
1F
100
AcDbEntity
  8
0
  6
CONTINUOUS
 62
     7
100
AcDbLine
 10
542.6960848039
 20
93.6953545666
 30
0.0
 11
560.016592328
 21
103.6953542481
 31
0.0
  0
LINE
  5
683
330
1F
100
AcDbEntity
  8
0
  6
CONTINUOUS
 62
     7
100
AcDbLine
 10
548.6960870104
 20
90.2312516775
 30
0.0
 11
542.6960848039
 21
93.6953545666
 31
0.0
  0
LINE
  5
684
330
1F
100
AcDbEntity
  8
0
  6
CONTINUOUS
 62
     7
100
AcDbLine
 10
560.0165926975
 20
96.7671511087
 30
0.0
 11
548.6960870104
 21
90.2312516775
 31
0.0
  0
LINE
  5
685
330
1F
100
AcDbEntity
  8
0
  6
CONTINUOUS
 62
     7
100
AcDbLine
 10
570.327970234
 20
90.8138745122
 30
0.0
 11
560.0165926975
 21
96.7671511087
 31
0.0
  0
LINE
  5
686
330
1F
100
AcDbEntity
  8
0
  6
CONTINUOUS
 62
     7
100
AcDbLine
 10
560.016592328
 20
103.6953542481
 30
0.0
 11
577.1201514902
 21
93.8206097617
 31
0.0
  0
LINE
  5
687
330
1F
100
AcDbEntity
  8
0
  6
CONTINUOUS
 62
     7
100
AcDbLine
 10
597.3371020586
 20
103.4303299898
 30
0.0
 11
597.3371020586
 21
106.7671481515
 31
0.0
  0
LINE
  5
688
330
1F
100
AcDbEntity
  8
0
  6
CONTINUOUS
 62
     7
100
AcDbLine
 10
597.3371020586
 20
106.7671481515
 30
0.0
 11
591.3371020586
 21
110.2312497666
 31
0.0
  0
LINE
  5
689
330
1F
100
AcDbEntity
  8
0
  6
CONTINUOUS
 62
     7
100
AcDbLine
 10
591.3371020586
 20
110.2312497666
 30
0.0
 11
591.3371020586
 21
100.4731823438
 31
0.0
  0
LINE
  5
68A
330
1F
100
AcDbEntity
  8
0
  6
CONTINUOUS
 62
     7
100
AcDbLine
 10
587.3371020586
 20
110.2312497666
 30
0.0
 11
587.3371020586
 21
98.5515485307
 31
0.0
  0
LINE
  5
68B
330
1F
100
AcDbEntity
  8
0
  6
CONTINUOUS
 62
     7
100
AcDbLine
 10
581.3371020586
 20
106.7671481515
 30
0.0
 11
587.3371020586
 21
110.2312497666
 31
0.0
  0
LINE
  5
68C
330
1F
100
AcDbEntity
  8
0
  6
CONTINUOUS
 62
     7
100
AcDbLine
 10
581.3371020586
 20
95.7426509093
 30
0.0
 11
581.3371020586
 21
106.7671481515
 31
0.0
  0
LINE
  5
68D
330
1F
100
AcDbEntity
  8
0
  6
CONTINUOUS
 62
     7
100
AcDbLine
 10
589.3371020586
 20
120.623554612
 30
0.0
 11
606.6576101342
 21
110.623554612
 31
0.0
  0
LINE
  5
68E
330
1F
100
AcDbEntity
  8
0
  6
CONTINUOUS
 62
     7
100
AcDbLine
 10
572.0165939829
 20
110.623554612
 30
0.0
 11
589.3371020586
 21
120.623554612
 31
0.0
  0
LINE
  5
68F
330
1F
100
AcDbEntity
  8
0
  6
CONTINUOUS
 62
     7
100
AcDbLine
 10
578.0165939829
 20
107.1594529969
 30
0.0
 11
572.0165939829
 21
110.623554612
 31
0.0
  0
LINE
  5
690
330
1F
100
AcDbEntity
  8
0
  6
CONTINUOUS
 62
     7
100
AcDbLine
 10
589.3371020586
 20
113.6953513817
 30
0.0
 11
578.0165939829
 21
107.1594529969
 31
0.0
  0
LINE
  5
691
330
1F
100
AcDbEntity
  8
0
  6
CONTINUOUS
 62
     7
100
AcDbLine
 10
600.6576101342
 20
107.1594529969
 30
0.0
 11
589.3371020586
 21
113.6953513817
 31
0.0
  0
LINE
  5
692
330
1F
100
AcDbEntity
  8
0
  6
CONTINUOUS
 62
     7
100
AcDbLine
 10
606.6576101342
 20
110.623554612
 30
0.0
 11
600.6576101342
 21
107.1594529969
 31
0.0
  0
LINE
  5
693
330
1F
100
AcDbEntity
  8
0
  6
CONTINUOUS
 62
     7
100
AcDbLine
 10
550.0165923072
 20
283.3612497666
 30
0.0
 11
550.0165950861
 21
290.289451086
 31
0.0
  0
LINE
  5
694
330
1F
100
AcDbEntity
  8
0
  6
CONTINUOUS
 62
     7
100
AcDbLine
 10
550.0165950861
 20
290.289451086
 30
0.0
 11
538.6960859072
 21
296.8253501078
 31
0.0
  0
LINE
  5
695
330
1F
100
AcDbEntity
  8
0
  6
CONTINUOUS
 62
     7
100
AcDbLine
 10
538.6960859072
 20
296.8253501078
 30
0.0
 11
538.6960859072
 21
301.3683162804
 31
0.0
  0
LINE
  5
696
330
1F
100
AcDbEntity
  8
0
  6
CONTINUOUS
 62
     7
100
AcDbLine
 10
532.6960859072
 20
293.6314521263
 30
0.0
 11
532.6960859072
 21
293.3612484926
 31
0.0
  0
LINE
  5
697
330
1F
100
AcDbEntity
  8
0
  6
CONTINUOUS
 62
     7
100
AcDbLine
 10
532.6960859072
 20
293.3612484926
 30
0.0
 11
550.0165923072
 21
283.3612497666
 31
0.0
  0
LINE
  5
698
330
1F
100
AcDbEntity
  8
0
  6
CONTINUOUS
 62
     7
100
AcDbLine
 10
542.0165939829
 20
276.4330465363
 30
0.0
 11
531.240223935
 21
282.6547866843
 31
0.0
  0
LINE
  5
699
330
1F
100
AcDbEntity
  8
0
  6
CONTINUOUS
 62
     7
100
AcDbLine
 10
548.0165939829
 20
279.8971481515
 30
0.0
 11
542.0165939829
 21
276.4330465363
 31
0.0
  0
LINE
  5
69A
330
1F
100
AcDbEntity
  8
0
  6
CONTINUOUS
 62
     7
100
AcDbLine
 10
531.3987701785
 20
289.4914531982
 30
0.0
 11
548.0165939829
 21
279.8971481515
 31
0.0
  0
LINE
  5
69B
330
1F
100
AcDbEntity
  8
0
  6
CONTINUOUS
 62
     7
100
AcDbLine
 10
571.3371020586
 20
191.794843306
 30
0.0
 11
560.0165939829
 21
198.3307416909
 31
0.0
  0
LINE
  5
69C
330
1F
100
AcDbEntity
  8
0
  6
CONTINUOUS
 62
     7
100
AcDbLine
 10
577.3371020586
 20
195.2589449212
 30
0.0
 11
571.3371020586
 21
191.794843306
 31
0.0
  0
LINE
  5
69D
330
1F
100
AcDbEntity
  8
0
  6
CONTINUOUS
 62
     7
100
AcDbLine
 10
560.0165939829
 20
205.2589449212
 30
0.0
 11
577.3371020586
 21
195.2589449212
 31
0.0
  0
LINE
  5
69E
330
1F
100
AcDbEntity
  8
0
  6
CONTINUOUS
 62
     7
100
AcDbLine
 10
550.4441362478
 20
199.732283871
 30
0.0
 11
560.0165939829
 21
205.2589449212
 31
0.0
  0
LINE
  5
69F
330
1F
100
AcDbEntity
  8
0
  6
CONTINUOUS
 62
     7
100
AcDbLine
 10
560.0165939829
 20
198.3307416909
 30
0.0
 11
550.4882424452
 21
192.8295453657
 31
0.0
  0
LINE
  5
6A0
330
1F
100
AcDbEntity
  8
0
  6
CONTINUOUS
 62
     7
100
AcDbLine
 10
568.0165939829
 20
225.2589423733
 30
0.0
 11
562.0165939829
 21
228.7230439884
 31
0.0
  0
LINE
  5
6A1
330
1F
100
AcDbEntity
  8
0
  6
CONTINUOUS
 62
     7
100
AcDbLine
 10
562.0165939829
 20
228.7230439884
 30
0.0
 11
562.0165939829
 21
208.7230465363
 31
0.0
  0
LINE
  5
6A2
330
1F
100
AcDbEntity
  8
0
  6
CONTINUOUS
 62
     7
100
AcDbLine
 10
562.0165939829
 20
208.7230465363
 30
0.0
 11
579.3371020586
 21
198.7230465363
 31
0.0
  0
LINE
  5
6A3
330
1F
100
AcDbEntity
  8
0
  6
CONTINUOUS
 62
     7
100
AcDbLine
 10
579.3371020586
 20
198.7230465363
 30
0.0
 11
579.3371020586
 21
205.6512497666
 31
0.0
  0
LINE
  5
6A4
330
1F
100
AcDbEntity
  8
0
  6
CONTINUOUS
 62
     7
100
AcDbLine
 10
579.3371020586
 20
205.6512497666
 30
0.0
 11
568.0165939829
 21
212.1871481515
 31
0.0
  0
LINE
  5
6A5
330
1F
100
AcDbEntity
  8
0
  6
CONTINUOUS
 62
     7
100
AcDbLine
 10
568.0165939829
 20
212.1871481515
 30
0.0
 11
568.0165939829
 21
225.2589423733
 31
0.0
  0
LINE
  5
6A6
330
1F
100
AcDbEntity
  8
0
  6
CONTINUOUS
 62
     7
100
AcDbLine
 10
549.3962145727
 20
216.0094259861
 30
0.0
 11
550.0165923072
 21
215.6512497666
 31
0.0
  0
LINE
  5
6A7
330
1F
100
AcDbEntity
  8
0
  6
CONTINUOUS
 62
     7
100
AcDbLine
 10
550.0165923072
 20
215.6512497666
 30
0.0
 11
550.0165950861
 21
222.5794523599
 31
0.0
  0
LINE
  5
6A8
330
1F
100
AcDbEntity
  8
0
  6
CONTINUOUS
 62
     7
100
AcDbLine
 10
550.0165950861
 20
222.5794523599
 30
0.0
 11
548.4678825712
 21
223.4736019473
 31
0.0
  0
LINE
  5
6A9
330
1F
100
AcDbEntity
  8
0
  6
CONTINUOUS
 62
     7
100
AcDbLine
 10
558.0165939829
 20
228.7230439884
 30
0.0
 11
558.0165939829
 21
208.7230465363
 31
0.0
  0
LINE
  5
6AA
330
1F
100
AcDbEntity
  8
0
  6
CONTINUOUS
 62
     7
100
AcDbLine
 10
552.0165939829
 20
225.2589423733
 30
0.0
 11
558.0165939829
 21
228.7230439884
 31
0.0
  0
LINE
  5
6AB
330
1F
100
AcDbEntity
  8
0
  6
CONTINUOUS
 62
     7
100
AcDbLine
 10
552.0165939829
 20
212.1871456036
 30
0.0
 11
552.0165939829
 21
225.2589423733
 31
0.0
  0
LINE
  5
6AC
330
1F
100
AcDbEntity
  8
0
  6
CONTINUOUS
 62
     7
100
AcDbLine
 10
549.8649700607
 20
210.9449075008
 30
0.0
 11
552.0165939829
 21
212.1871456036
 31
0.0
  0
LINE
  5
6AD
330
1F
100
AcDbEntity
  8
0
  6
CONTINUOUS
 62
     7
100
AcDbLine
 10
558.0165939829
 20
208.7230465363
 30
0.0
 11
550.2860507187
 21
204.2598153018
 31
0.0
  0
LINE
  5
6AE
330
1F
100
AcDbEntity
  8
0
  6
CONTINUOUS
 62
     7
100
AcDbLine
 10
589.3371020586
 20
289.8971481515
 30
0.0
 11
606.6576101342
 21
279.8971481515
 31
0.0
  0
LINE
  5
6AF
330
1F
100
AcDbEntity
  8
0
  6
CONTINUOUS
 62
     7
100
AcDbLine
 10
572.0165939829
 20
279.8971481515
 30
0.0
 11
589.3371020586
 21
289.8971481515
 31
0.0
  0
LINE
  5
6B0
330
1F
100
AcDbEntity
  8
0
  6
CONTINUOUS
 62
     7
100
AcDbLine
 10
578.0165939829
 20
276.4330465363
 30
0.0
 11
572.0165939829
 21
279.8971481515
 31
0.0
  0
LINE
  5
6B1
330
1F
100
AcDbEntity
  8
0
  6
CONTINUOUS
 62
     7
100
AcDbLine
 10
589.3371020586
 20
282.9689449212
 30
0.0
 11
578.0165939829
 21
276.4330465363
 31
0.0
  0
LINE
  5
6B2
330
1F
100
AcDbEntity
  8
0
  6
CONTINUOUS
 62
     7
100
AcDbLine
 10
600.6576101342
 20
276.4330465363
 30
0.0
 11
589.3371020586
 21
282.9689449212
 31
0.0
  0
LINE
  5
6B3
330
1F
100
AcDbEntity
  8
0
  6
CONTINUOUS
 62
     7
100
AcDbLine
 10
606.6576101342
 20
279.8971481515
 30
0.0
 11
600.6576101342
 21
276.4330465363
 31
0.0
  0
LINE
  5
6B4
330
1F
100
AcDbEntity
  8
0
  6
CONTINUOUS
 62
     7
100
AcDbLine
 10
618.6576101342
 20
272.9689449212
 30
0.0
 11
620.1803858629
 21
272.0897699443
 31
0.0
  0
LINE
  5
6B5
330
1F
100
AcDbEntity
  8
0
  6
CONTINUOUS
 62
     7
100
AcDbLine
 10
601.3371020586
 20
262.9689449212
 30
0.0
 11
618.6576101342
 21
272.9689449212
 31
0.0
  0
LINE
  5
6B6
330
1F
100
AcDbEntity
  8
0
  6
CONTINUOUS
 62
     7
100
AcDbLine
 10
607.3371020586
 20
259.504843306
 30
0.0
 11
601.3371020586
 21
262.9689449212
 31
0.0
  0
LINE
  5
6B7
330
1F
100
AcDbEntity
  8
0
  6
CONTINUOUS
 62
     7
100
AcDbLine
 10
618.6576101342
 20
266.0407416909
 30
0.0
 11
607.3371020586
 21
259.504843306
 31
0.0
  0
LINE
  5
6B8
330
1F
100
AcDbEntity
  8
0
  6
CONTINUOUS
 62
     7
100
AcDbLine
 10
629.9781182099
 20
259.504843306
 30
0.0
 11
618.6576101342
 21
266.0407416909
 31
0.0
  0
LINE
  5
6B9
330
1F
100
AcDbEntity
  8
0
  6
CONTINUOUS
 62
     7
100
AcDbLine
 10
631.5079790805
 20
260.3881088915
 30
0.0
 11
629.9781182099
 21
259.504843306
 31
0.0
  0
LINE
  5
6BA
330
1F
100
AcDbEntity
  8
0
  6
CONTINUOUS
 62
     7
100
AcDbLine
 10
541.4895029543
 20
254.4307745279
 30
0.0
 11
550.0165950861
 21
249.5076555902
 31
0.0
  0
LINE
  5
6BB
330
1F
100
AcDbEntity
  8
0
  6
CONTINUOUS
 62
     7
100
AcDbLine
 10
550.0165950861
 20
249.5076555902
 30
0.0
 11
550.0165950861
 21
256.4358588204
 31
0.0
  0
LINE
  5
6BC
330
1F
100
AcDbEntity
  8
0
  6
CONTINUOUS
 62
     7
100
AcDbLine
 10
550.0165950861
 20
256.4358588204
 30
0.0
 11
538.6960847943
 21
262.9717559146
 31
0.0
  0
LINE
  5
6BD
330
1F
100
AcDbEntity
  8
0
  6
CONTINUOUS
 62
     7
100
AcDbLine
 10
538.6960847943
 20
262.9717559146
 30
0.0
 11
538.6960824294
 21
276.0435526844
 31
0.0
  0
LINE
  5
6BE
330
1F
100
AcDbEntity
  8
0
  6
CONTINUOUS
 62
     7
100
AcDbLine
 10
538.6960824294
 20
276.0435526844
 30
0.0
 11
532.6960818396
 21
279.5076532778
 31
0.0
  0
LINE
  5
6BF
330
1F
100
AcDbEntity
  8
0
  6
CONTINUOUS
 62
     7
100
AcDbLine
 10
532.6960818396
 20
279.5076532778
 30
0.0
 11
532.6960859072
 21
277.6010672466
 31
0.0
  0
LINE
  5
6C0
330
1F
100
AcDbEntity
  8
0
  6
CONTINUOUS
 62
     7
100
AcDbLine
 10
653.2389788393
 20
176.0585910044
 30
0.0
 11
649.9781182099
 21
177.9412497666
 31
0.0
  0
LINE
  5
6C1
330
1F
100
AcDbEntity
  8
0
  6
CONTINUOUS
 62
     7
100
AcDbLine
 10
649.9781182099
 20
177.9412497666
 30
0.0
 11
649.9781182099
 21
163.2707109573
 31
0.0
  0
LINE
  5
6C2
330
1F
100
AcDbEntity
  8
0
  6
CONTINUOUS
 62
     7
100
AcDbLine
 10
626.6576095826
 20
191.4053504263
 30
0.0
 11
620.6576101342
 21
194.8694517229
 31
0.0
  0
LINE
  5
6C3
330
1F
100
AcDbEntity
  8
0
  6
CONTINUOUS
 62
     7
100
AcDbLine
 10
620.6576101342
 20
194.8694517229
 30
0.0
 11
620.6576101342
 21
174.8694529969
 31
0.0
  0
LINE
  5
6C4
330
1F
100
AcDbEntity
  8
0
  6
CONTINUOUS
 62
     7
100
AcDbLine
 10
620.6576101342
 20
174.8694529969
 30
0.0
 11
637.9781176583
 21
164.8694520414
 31
0.0
  0
LINE
  5
6C5
330
1F
100
AcDbEntity
  8
0
  6
CONTINUOUS
 62
     7
100
AcDbLine
 10
637.9781176583
 20
164.8694520414
 30
0.0
 11
637.9781176583
 21
171.7976552717
 31
0.0
  0
LINE
  5
6C6
330
1F
100
AcDbEntity
  8
0
  6
CONTINUOUS
 62
     7
100
AcDbLine
 10
637.9781176583
 20
171.7976552717
 30
0.0
 11
626.6576095826
 21
178.3335536565
 31
0.0
  0
LINE
  5
6C7
330
1F
100
AcDbEntity
  8
0
  6
CONTINUOUS
 62
     7
100
AcDbLine
 10
626.6576095826
 20
178.3335536565
 30
0.0
 11
626.6576095826
 21
191.4053504263
 31
0.0
  0
LINE
  5
6C8
330
1F
100
AcDbEntity
  8
0
  6
CONTINUOUS
 62
     7
100
AcDbLine
 10
653.9729523928
 20
209.4912376363
 30
0.0
 11
649.9781182099
 21
211.7976562271
 31
0.0
  0
LINE
  5
6C9
330
1F
100
AcDbEntity
  8
0
  6
CONTINUOUS
 62
     7
100
AcDbLine
 10
649.9781182099
 20
211.7976562271
 30
0.0
 11
649.9781182099
 21
191.7976562271
 31
0.0
  0
LINE
  5
6CA
330
1F
100
AcDbEntity
  8
0
  6
CONTINUOUS
 62
     7
100
AcDbLine
 10
649.9781182099
 20
191.7976562271
 30
0.0
 11
654.8246258471
 21
188.9995237382
 31
0.0
  0
LINE
  5
6CB
330
1F
100
AcDbEntity
  8
0
  6
CONTINUOUS
 62
     7
100
AcDbLine
 10
618.6576101342
 20
171.4053513817
 30
0.0
 11
635.9781182099
 21
161.4053513817
 31
0.0
  0
LINE
  5
6CC
330
1F
100
AcDbEntity
  8
0
  6
CONTINUOUS
 62
     7
100
AcDbLine
 10
601.3371020586
 20
161.4053513817
 30
0.0
 11
618.6576101342
 21
171.4053513817
 31
0.0
  0
LINE
  5
6CD
330
1F
100
AcDbEntity
  8
0
  6
CONTINUOUS
 62
     7
100
AcDbLine
 10
607.3371020586
 20
157.9412497666
 30
0.0
 11
601.3371020586
 21
161.4053513817
 31
0.0
  0
LINE
  5
6CE
330
1F
100
AcDbEntity
  8
0
  6
CONTINUOUS
 62
     7
100
AcDbLine
 10
618.6576101342
 20
164.4771481515
 30
0.0
 11
607.3371020586
 21
157.9412497666
 31
0.0
  0
LINE
  5
6CF
330
1F
100
AcDbEntity
  8
0
  6
CONTINUOUS
 62
     7
100
AcDbLine
 10
629.9781182099
 20
157.9412497666
 30
0.0
 11
618.6576101342
 21
164.4771481515
 31
0.0
  0
LINE
  5
6D0
330
1F
100
AcDbEntity
  8
0
  6
CONTINUOUS
 62
     7
100
AcDbLine
 10
635.9781182099
 20
161.4053513817
 30
0.0
 11
629.9781182099
 21
157.9412497666
 31
0.0
  0
LINE
  5
6D1
330
1F
100
AcDbEntity
  8
0
  6
CONTINUOUS
 62
     7
100
AcDbLine
 10
630.6576101342
 20
144.4771481515
 30
0.0
 11
646.2325298254
 21
153.4693322278
 31
0.0
  0
LINE
  5
6D2
330
1F
100
AcDbEntity
  8
0
  6
CONTINUOUS
 62
     7
100
AcDbLine
 10
636.6576101342
 20
141.0130465363
 30
0.0
 11
630.6576101342
 21
144.4771481515
 31
0.0
  0
LINE
  5
6D3
330
1F
100
AcDbEntity
  8
0
  6
CONTINUOUS
 62
     7
100
AcDbLine
 10
641.2596660201
 20
143.6700447409
 30
0.0
 11
636.6576101342
 21
141.0130465363
 31
0.0
  0
LINE
  5
6D4
330
1F
100
AcDbEntity
  8
0
  6
CONTINUOUS
 62
     7
100
AcDbLine
 10
639.9781182099
 20
242.1871481515
 30
0.0
 11
642.6953079937
 21
243.7559184045
 31
0.0
  0
LINE
  5
6D5
330
1F
100
AcDbEntity
  8
0
  6
CONTINUOUS
 62
     7
100
AcDbLine
 10
639.9781182099
 20
229.1153513817
 30
0.0
 11
639.9781182099
 21
242.1871481515
 31
0.0
  0
LINE
  5
6D6
330
1F
100
AcDbEntity
  8
0
  6
CONTINUOUS
 62
     7
100
AcDbLine
 10
628.6576101342
 20
222.5794529969
 30
0.0
 11
639.9781182099
 21
229.1153513817
 31
0.0
  0
LINE
  5
6D7
330
1F
100
AcDbEntity
  8
0
  6
CONTINUOUS
 62
     7
100
AcDbLine
 10
628.6576101342
 20
215.6512497666
 30
0.0
 11
628.6576101342
 21
222.5794529969
 31
0.0
  0
LINE
  5
6D8
330
1F
100
AcDbEntity
  8
0
  6
CONTINUOUS
 62
     7
100
AcDbLine
 10
645.9781182099
 20
225.6512497666
 30
0.0
 11
628.6576101342
 21
215.6512497666
 31
0.0
  0
LINE
  5
6D9
330
1F
100
AcDbEntity
  8
0
  6
CONTINUOUS
 62
     7
100
AcDbLine
 10
645.9781182099
 20
237.101676323
 30
0.0
 11
645.9781182099
 21
225.6512497666
 31
0.0
  0
LINE
  5
6DA
330
1F
100
AcDbEntity
  8
0
  6
CONTINUOUS
 62
     7
100
AcDbLine
 10
597.3371020586
 20
208.3335533381
 30
0.0
 11
591.3371020586
 21
211.7976549532
 31
0.0
  0
LINE
  5
6DB
330
1F
100
AcDbEntity
  8
0
  6
CONTINUOUS
 62
     7
100
AcDbLine
 10
591.3371020586
 20
211.7976549532
 30
0.0
 11
591.3371020586
 21
191.7976549532
 31
0.0
  0
LINE
  5
6DC
330
1F
100
AcDbEntity
  8
0
  6
CONTINUOUS
 62
     7
100
AcDbLine
 10
591.3371020586
 20
191.7976549532
 30
0.0
 11
608.6576101342
 21
181.7976549532
 31
0.0
  0
LINE
  5
6DD
330
1F
100
AcDbEntity
  8
0
  6
CONTINUOUS
 62
     7
100
AcDbLine
 10
608.6576101342
 20
181.7976549532
 30
0.0
 11
608.6576101342
 21
188.7258581835
 31
0.0
  0
LINE
  5
6DE
330
1F
100
AcDbEntity
  8
0
  6
CONTINUOUS
 62
     7
100
AcDbLine
 10
608.6576101342
 20
188.7258581835
 30
0.0
 11
597.3371020586
 21
195.2617565683
 31
0.0
  0
LINE
  5
6DF
330
1F
100
AcDbEntity
  8
0
  6
CONTINUOUS
 62
     7
100
AcDbLine
 10
597.3371020586
 20
195.2617565683
 30
0.0
 11
597.3371020586
 21
208.3335533381
 31
0.0
  0
LINE
  5
6E0
330
1F
100
AcDbEntity
  8
0
  6
CONTINUOUS
 62
     7
100
AcDbLine
 10
589.3371020586
 20
222.1871481515
 30
0.0
 11
606.6576101342
 21
212.1871481515
 31
0.0
  0
LINE
  5
6E1
330
1F
100
AcDbEntity
  8
0
  6
CONTINUOUS
 62
     7
100
AcDbLine
 10
572.0165939829
 20
212.1871481515
 30
0.0
 11
589.3371020586
 21
222.1871481515
 31
0.0
  0
LINE
  5
6E2
330
1F
100
AcDbEntity
  8
0
  6
CONTINUOUS
 62
     7
100
AcDbLine
 10
578.0165939829
 20
208.7230465363
 30
0.0
 11
572.0165939829
 21
212.1871481515
 31
0.0
  0
LINE
  5
6E3
330
1F
100
AcDbEntity
  8
0
  6
CONTINUOUS
 62
     7
100
AcDbLine
 10
589.3371020586
 20
215.2589449212
 30
0.0
 11
578.0165939829
 21
208.7230465363
 31
0.0
  0
LINE
  5
6E4
330
1F
100
AcDbEntity
  8
0
  6
CONTINUOUS
 62
     7
100
AcDbLine
 10
600.6576101342
 20
208.7230465363
 30
0.0
 11
589.3371020586
 21
215.2589449212
 31
0.0
  0
LINE
  5
6E5
330
1F
100
AcDbEntity
  8
0
  6
CONTINUOUS
 62
     7
100
AcDbLine
 10
606.6576101342
 20
212.1871481515
 30
0.0
 11
600.6576101342
 21
208.7230465363
 31
0.0
  0
LINE
  5
6E6
330
1F
100
AcDbEntity
  8
0
  6
CONTINUOUS
 62
     7
100
AcDbLine
 10
645.9781182099
 20
191.7976562271
 30
0.0
 11
628.6576101342
 21
181.7976562271
 31
0.0
  0
LINE
  5
6E7
330
1F
100
AcDbEntity
  8
0
  6
CONTINUOUS
 62
     7
100
AcDbLine
 10
645.9781182099
 20
211.7976562271
 30
0.0
 11
645.9781182099
 21
191.7976562271
 31
0.0
  0
LINE
  5
6E8
330
1F
100
AcDbEntity
  8
0
  6
CONTINUOUS
 62
     7
100
AcDbLine
 10
639.9781182099
 20
208.333554612
 30
0.0
 11
645.9781182099
 21
211.7976562271
 31
0.0
  0
LINE
  5
6E9
330
1F
100
AcDbEntity
  8
0
  6
CONTINUOUS
 62
     7
100
AcDbLine
 10
639.9781182099
 20
195.2617578423
 30
0.0
 11
639.9781182099
 21
208.333554612
 31
0.0
  0
LINE
  5
6EA
330
1F
100
AcDbEntity
  8
0
  6
CONTINUOUS
 62
     7
100
AcDbLine
 10
628.6576101342
 20
188.7258594574
 30
0.0
 11
639.9781182099
 21
195.2617578423
 31
0.0
  0
LINE
  5
6EB
330
1F
100
AcDbEntity
  8
0
  6
CONTINUOUS
 62
     7
100
AcDbLine
 10
628.6576101342
 20
181.7976562271
 30
0.0
 11
628.6576101342
 21
188.7258594574
 31
0.0
  0
LINE
  5
6EC
330
1F
100
AcDbEntity
  8
0
  6
CONTINUOUS
 62
     7
100
AcDbLine
 10
626.6576101342
 20
225.2589449212
 30
0.0
 11
620.6576101342
 21
228.7230465363
 31
0.0
  0
LINE
  5
6ED
330
1F
100
AcDbEntity
  8
0
  6
CONTINUOUS
 62
     7
100
AcDbLine
 10
620.6576101342
 20
228.7230465363
 30
0.0
 11
620.6576101342
 21
208.7230465363
 31
0.0
  0
LINE
  5
6EE
330
1F
100
AcDbEntity
  8
0
  6
CONTINUOUS
 62
     7
100
AcDbLine
 10
620.6576101342
 20
208.7230465363
 30
0.0
 11
637.9781182099
 21
198.7230465363
 31
0.0
  0
LINE
  5
6EF
330
1F
100
AcDbEntity
  8
0
  6
CONTINUOUS
 62
     7
100
AcDbLine
 10
637.9781182099
 20
198.7230465363
 30
0.0
 11
637.9781182099
 21
205.6512497666
 31
0.0
  0
LINE
  5
6F0
330
1F
100
AcDbEntity
  8
0
  6
CONTINUOUS
 62
     7
100
AcDbLine
 10
637.9781182099
 20
205.6512497666
 30
0.0
 11
626.6576101342
 21
212.1871481515
 31
0.0
  0
LINE
  5
6F1
330
1F
100
AcDbEntity
  8
0
  6
CONTINUOUS
 62
     7
100
AcDbLine
 10
626.6576101342
 20
212.1871481515
 30
0.0
 11
626.6576101342
 21
225.2589449212
 31
0.0
  0
LINE
  5
6F2
330
1F
100
AcDbEntity
  8
0
  6
CONTINUOUS
 62
     7
100
AcDbLine
 10
288.0141051395
 20
203.0000024508
 30
0.0
 11
301.1507327029
 21
203.0000024508
 31
0.0
  0
LINE
  5
6F3
330
1F
100
AcDbEntity
  8
0
  6
CONTINUOUS
 62
     7
100
AcDbLine
 10
301.1507327029
 20
187.0000024508
 30
0.0
 11
288.0141051395
 21
187.0000024508
 31
0.0
  0
LINE
  5
6F4
330
1F
100
AcDbEntity
  8
0
  6
CONTINUOUS
 62
     7
100
AcDbLine
 10
457.2019029261
 20
203.0000024508
 30
0.0
 11
470.2341371938
 21
203.0000024508
 31
0.0
  0
LINE
  5
6F5
330
1F
100
AcDbEntity
  8
0
  6
CONTINUOUS
 62
     7
100
AcDbLine
 10
470.2341371938
 20
187.0000024508
 30
0.0
 11
457.2019029261
 21
187.0000024508
 31
0.0
  0
LINE
  5
6F6
330
1F
100
AcDbEntity
  8
0
  6
CONTINUOUS
 62
     7
100
AcDbLine
 10
341.9999906297
 20
273.0912951792
 30
0.0
 11
341.9999906297
 21
286.1496047538
 31
0.0
  0
LINE
  5
6F7
330
1F
100
AcDbEntity
  8
0
  6
CONTINUOUS
 62
     7
100
AcDbLine
 10
357.9999906297
 20
286.1496047538
 30
0.0
 11
357.9999906297
 21
273.0912951792
 31
0.0
  0
LINE
  5
6F8
330
1F
100
AcDbEntity
  8
0
  6
CONTINUOUS
 62
     7
100
AcDbLine
 10
357.9999906297
 20
344.2858021774
 30
0.0
 11
357.9999906297
 21
331.2653685568
 31
0.0
  0
LINE
  5
6F9
330
1F
100
AcDbEntity
  8
0
  6
CONTINUOUS
 62
     7
100
AcDbLine
 10
341.9999906297
 20
331.2653685568
 30
0.0
 11
341.9999906297
 21
344.2858021774
 31
0.0
  0
LINE
  5
6FA
330
1F
100
AcDbEntity
  8
0
  6
CONTINUOUS
 62
     7
100
AcDbLine
 10
787.9664169778
 20
175.75
 30
0.0
 11
787.9664169778
 21
194.25
 31
0.0
  0
LINE
  5
6FB
330
1F
100
AcDbEntity
  8
0
  6
CONTINUOUS
 62
     7
100
AcDbLine
 10
761.9664169778
 20
194.25
 30
0.0
 11
761.9664169778
 21
360.0
 31
0.0
  0
LINE
  5
6FC
330
1F
100
AcDbEntity
  8
0
  6
CONTINUOUS
 62
     7
100
AcDbLine
 10
787.9664169778
 20
194.25
 30
0.0
 11
761.9664169778
 21
194.25
 31
0.0
  0
LINE
  5
6FD
330
1F
100
AcDbEntity
  8
0
  6
CONTINUOUS
 62
     7
100
AcDbLine
 10
761.9664169778
 20
175.75
 30
0.0
 11
787.9664169778
 21
175.75
 31
0.0
  0
LINE
  5
6FE
330
1F
100
AcDbEntity
  8
0
  6
CONTINUOUS
 62
     7
100
AcDbLine
 10
761.9664169778
 20
360.0
 30
0.0
 11
772.1137185717
 21
360.0
 31
0.0
  0
LINE
  5
6FF
330
1F
100
AcDbEntity
  8
0
  6
CONTINUOUS
 62
     7
100
AcDbLine
 10
761.9664169778
 20
10.0
 30
0.0
 11
761.9664169778
 21
175.75
 31
0.0
  0
LINE
  5
700
330
1F
100
AcDbEntity
  8
0
  6
CONTINUOUS
 62
     7
100
AcDbLine
 10
772.1137185717
 20
10.0
 30
0.0
 11
761.9664169778
 21
10.0
 31
0.0
  0
LINE
  5
701
330
1F
100
AcDbEntity
  8
0
  6
CONTINUOUS
 62
     7
100
AcDbLine
 10
751.9263145341
 20
194.25
 30
0.0
 11
726.0
 21
194.25
 31
0.0
  0
LINE
  5
702
330
1F
100
AcDbEntity
  8
0
  6
CONTINUOUS
 62
     7
100
AcDbLine
 10
726.0
 20
194.25
 30
0.0
 11
726.0
 21
175.75
 31
0.0
  0
LINE
  5
703
330
1F
100
AcDbEntity
  8
0
  6
CONTINUOUS
 62
     7
100
AcDbLine
 10
726.0
 20
175.75
 30
0.0
 11
751.9263145341
 21
175.75
 31
0.0
  0
LINE
  5
704
330
1F
100
AcDbEntity
  8
0
  6
CONTINUOUS
 62
     7
100
AcDbLine
 10
710.1473015939
 20
10.0
 30
0.0
 11
700.0
 21
10.0
 31
0.0
  0
LINE
  5
705
330
1F
100
AcDbEntity
  8
0
  6
CONTINUOUS
 62
     7
100
AcDbLine
 10
700.0
 20
360.0
 30
0.0
 11
710.1473015939
 21
360.0
 31
0.0
  0
LINE
  5
706
330
1F
100
AcDbEntity
  8
0
  6
CONTINUOUS
 62
     7
100
AcDbLine
 10
700.0
 20
10.0
 30
0.0
 11
700.0
 21
360.0
 31
0.0
  0
ARC
  5
707
330
1F
100
AcDbEntity
  8
0
  6
CONTINUOUS
 62
     7
100
AcDbCircle
 10
552.2527426894
 20
195.0000024508
 30
0.0
 40
102.7472479402629
100
AcDbArc
 50
9.5377052377
 51
14.0257508495
  0
ARC
  5
708
330
1F
100
AcDbEntity
  8
0
  6
CONTINUOUS
 62
     7
100
AcDbCircle
 10
552.2527426892
 20
195.0000024508
 30
0.0
 40
102.747247940485
100
AcDbArc
 50
350.5634346431
 51
354.1822172409
  0
ARC
  5
709
330
1F
100
AcDbEntity
  8
0
  6
CONTINUOUS
 62
     7
100
AcDbCircle
 10
349.9999906296
 20
195.0000024508
 30
0.0
 40
200.5000000001176
100
AcDbArc
 50
11.7458040483
 51
13.5422531806
  0
ARC
  5
70A
330
1F
100
AcDbEntity
  8
0
  6
CONTINUOUS
 62
     7
100
AcDbCircle
 10
349.9999906345
 20
195.0000024521
 30
0.0
 40
200.4999999950265
100
AcDbArc
 50
14.1372965945
 51
15.5842948574
  0
ARC
  5
70B
330
1F
100
AcDbEntity
  8
0
  6
CONTINUOUS
 62
     7
100
AcDbCircle
 10
552.2527426894
 20
195.0000024508
 30
0.0
 40
102.7472479403464
100
AcDbArc
 50
51.8983069601
 51
55.5536518648
  0
ARC
  5
70C
330
1F
100
AcDbEntity
  8
0
  6
CONTINUOUS
 62
     7
100
AcDbCircle
 10
349.9999553754
 20
-207.7073920575
 30
0.0
 40
552.707408873087
100
AcDbArc
 50
64.7787955649
 51
65.539585344
  0
ARC
  5
70D
330
1F
100
AcDbEntity
  8
0
  6
CONTINUOUS
 62
     7
100
AcDbCircle
 10
349.9999906286
 20
195.0000024506
 30
0.0
 40
200.5000000010982
100
AcDbArc
 50
8.8949378591
 51
10.5378859107
  0
ARC
  5
70E
330
1F
100
AcDbEntity
  8
0
  6
CONTINUOUS
 62
     7
100
AcDbCircle
 10
349.9999906304
 20
597.7074113133
 30
0.0
 40
552.7074088623873
100
AcDbArc
 50
292.5566341499
 51
293.2318079166
  0
ARC
  5
70F
330
1F
100
AcDbEntity
  8
0
  6
CONTINUOUS
 62
     7
100
AcDbCircle
 10
551.0197506649
 20
104.3837452152
 30
0.0
 40
19.99999999999881
100
AcDbArc
 50
272.8569294653
 51
290.4776615827
  0
ARC
  5
710
330
1F
100
AcDbEntity
  8
0
  6
CONTINUOUS
 62
     7
100
AcDbCircle
 10
551.0197506649
 20
104.3837452152
 30
0.0
 40
20.00000000000006
100
AcDbArc
 50
203.625674708
 51
267.1249614284
  0
ARC
  5
711
330
1F
100
AcDbEntity
  8
0
  6
CONTINUOUS
 62
     7
100
AcDbCircle
 10
349.999990629
 20
195.0000024511
 30
0.0
 40
200.5000000008149
100
AcDbArc
 50
335.7349657213
 51
337.4324598966
  0
ARC
  5
712
330
1F
100
AcDbEntity
  8
0
  6
CONTINUOUS
 62
     7
100
AcDbCircle
 10
349.9999906291
 20
195.0000024509
 30
0.0
 40
200.5000000005777
100
AcDbArc
 50
349.5988435931
 51
351.2704394008
  0
ARC
  5
713
330
1F
100
AcDbEntity
  8
0
  6
CONTINUOUS
 62
     7
100
AcDbCircle
 10
349.9999906301
 20
195.0000024508
 30
0.0
 40
200.499999999606
100
AcDbArc
 50
352.7211229596
 51
354.8464320128
  0
ARC
  5
714
330
1F
100
AcDbEntity
  8
0
  6
CONTINUOUS
 62
     7
100
AcDbCircle
 10
552.2527426893
 20
195.0000024508
 30
0.0
 40
102.7472479403984
100
AcDbArc
 50
311.7405520795
 51
316.1767149505
  0
ARC
  5
715
330
1F
100
AcDbEntity
  8
0
  6
CONTINUOUS
 62
     7
100
AcDbCircle
 10
551.0197506649
 20
285.6162596865
 30
0.0
 40
19.9999999999987
100
AcDbArc
 50
93.3112413676
 51
121.0765770943
  0
ARC
  5
716
330
1F
100
AcDbEntity
  8
0
  6
CONTINUOUS
 62
     7
100
AcDbCircle
 10
552.2527426892
 20
195.0000024507
 30
0.0
 40
102.7472479405136
100
AcDbArc
 50
29.4437914014
 51
32.7907320343
  0
ARC
  5
717
330
1F
100
AcDbEntity
  8
0
  6
CONTINUOUS
 62
     7
100
AcDbCircle
 10
147.7472385701
 20
195.0000024508
 30
0.0
 40
102.7472479403577
100
AcDbArc
 50
190.623213549
 51
197.9874796946
  0
ARC
  5
718
330
1F
100
AcDbEntity
  8
0
  6
CONTINUOUS
 62
     7
100
AcDbCircle
 10
147.7472385701
 20
195.0000024508
 30
0.0
 40
102.7472479403709
100
AcDbArc
 50
203.841146547
 51
209.9718870572
  0
ARC
  5
719
330
1F
100
AcDbEntity
  8
0
  6
CONTINUOUS
 62
     7
100
AcDbCircle
 10
147.7472385701
 20
195.0000024508
 30
0.0
 40
102.7472479404397
100
AcDbArc
 50
185.8177827591
 51
189.4365653569
  0
ARC
  5
71A
330
1F
100
AcDbEntity
  8
0
  6
CONTINUOUS
 62
     7
100
AcDbCircle
 10
349.9999906275
 20
597.7074113104
 30
0.0
 40
552.707408859106
100
AcDbArc
 50
243.4165373871
 51
244.1099646377
  0
ARC
  5
71B
330
1F
100
AcDbEntity
  8
0
  6
CONTINUOUS
 62
     7
100
AcDbCircle
 10
148.9802305945
 20
104.3837452152
 30
0.0
 40
19.99999999999969
100
AcDbArc
 50
249.5223384173
 51
267.1430705347
  0
ARC
  5
71C
330
1F
100
AcDbEntity
  8
0
  6
CONTINUOUS
 62
     7
100
AcDbCircle
 10
349.9999906298
 20
195.0000024508
 30
0.0
 40
200.5000000000999
100
AcDbArc
 50
202.5675401034
 51
204.2650342787
  0
ARC
  5
71D
330
1F
100
AcDbEntity
  8
0
  6
CONTINUOUS
 62
     7
100
AcDbCircle
 10
349.9999906301
 20
195.0000024509
 30
0.0
 40
200.5000000004359
100
AcDbArc
 50
191.0067055977
 51
192.810540784
  0
ARC
  5
71E
330
1F
100
AcDbEntity
  8
0
  6
CONTINUOUS
 62
     7
100
AcDbCircle
 10
147.7472385701
 20
195.0000024508
 30
0.0
 40
102.7472479403686
100
AcDbArc
 50
171.8921022815
 51
183.3480004729
  0
ARC
  5
71F
330
1F
100
AcDbEntity
  8
0
  6
CONTINUOUS
 62
     7
100
AcDbCircle
 10
349.9999906324
 20
195.0000024503
 30
0.0
 40
200.5000000027039
100
AcDbArc
 50
169.4621140893
 51
171.1050621409
  0
ARC
  5
720
330
1F
100
AcDbEntity
  8
0
  6
CONTINUOUS
 62
     7
100
AcDbCircle
 10
349.9999906254
 20
195.000002452
 30
0.0
 40
200.4999999955661
100
AcDbArc
 50
164.4157051426
 51
165.8627034055
  0
ARC
  5
721
330
1F
100
AcDbEntity
  8
0
  6
CONTINUOUS
 62
     7
100
AcDbCircle
 10
349.9999906299
 20
195.0000024509
 30
0.0
 40
200.5000000002431
100
AcDbArc
 50
199.6749306262
 51
201.4132018703
  0
ARC
  5
722
330
1F
100
AcDbEntity
  8
0
  6
CONTINUOUS
 62
     7
100
AcDbCircle
 10
349.9999906299
 20
195.0000024508
 30
0.0
 40
200.5000000001468
100
AcDbArc
 50
178.6475564425
 51
180.6202516685
  0
ARC
  5
723
330
1F
100
AcDbEntity
  8
0
  6
CONTINUOUS
 62
     7
100
AcDbCircle
 10
147.7472385701
 20
195.0000024508
 30
0.0
 40
102.7472479404469
100
AcDbArc
 50
213.6559252354
 51
217.0167999798
  0
ARC
  5
724
330
1F
100
AcDbEntity
  8
0
  6
CONTINUOUS
 62
     7
100
AcDbCircle
 10
349.9999906296
 20
195.0000024508
 30
0.0
 40
200.4999999999158
100
AcDbArc
 50
196.2204206802
 51
197.9914313351
  0
ARC
  5
725
330
1F
100
AcDbEntity
  8
0
  6
CONTINUOUS
 62
     7
100
AcDbCircle
 10
349.9999906291
 20
195.0000024507
 30
0.0
 40
200.4999999994174
100
AcDbArc
 50
185.1535679872
 51
187.2788770404
  0
ARC
  5
726
330
1F
100
AcDbEntity
  8
0
  6
CONTINUOUS
 62
     7
100
AcDbCircle
 10
349.9999906297
 20
195.0000024508
 30
0.0
 40
200.4999999999552
100
AcDbArc
 50
188.7295605992
 51
190.4011564069
  0
ARC
  5
727
330
1F
100
AcDbEntity
  8
0
  6
CONTINUOUS
 62
     7
100
AcDbCircle
 10
552.2527426876
 20
195.0000024502
 30
0.0
 40
137.7472479415416
100
AcDbArc
 50
303.1894707924
 51
56.8105292076
  0
ARC
  5
728
330
1F
100
AcDbEntity
  8
0
  6
CONTINUOUS
 62
     7
100
AcDbCircle
 10
349.9999906294
 20
597.707411323
 30
0.0
 40
587.7074088723497
100
AcDbArc
 50
241.80715573
 51
298.19284427
  0
ARC
  5
729
330
1F
100
AcDbEntity
  8
0
  6
CONTINUOUS
 62
     7
100
AcDbCircle
 10
147.7472385712
 20
195.0000024502
 30
0.0
 40
137.7472479415584
100
AcDbArc
 50
123.1894707924
 51
236.8105292076
  0
ARC
  5
72A
330
1F
100
AcDbEntity
  8
0
  6
CONTINUOUS
 62
     7
100
AcDbCircle
 10
349.9999906294
 20
-207.7074064132
 30
0.0
 40
587.7074088640545
100
AcDbArc
 50
61.8071557295
 51
118.1928442705
  0
ARC
  5
72B
330
1F
100
AcDbEntity
  8
0
  6
CONTINUOUS
 62
     7
100
AcDbCircle
 10
349.9999906297
 20
195.0000024508
 30
0.0
 40
200.4999999999533
100
AcDbArc
 50
194.0032889252
 51
195.4004699659
  0
ARC
  5
72C
330
1F
100
AcDbEntity
  8
0
  6
CONTINUOUS
 62
     7
100
AcDbCircle
 10
350.0000258836
 20
-207.7073920566
 30
0.0
 40
552.7074088720299
100
AcDbArc
 50
114.460414656
 51
115.2212044351
  0
ARC
  5
72D
330
1F
100
AcDbEntity
  8
0
  6
CONTINUOUS
 62
     7
100
AcDbCircle
 10
349.9999906297
 20
195.0000024508
 30
0.0
 40
200.5000000000174
100
AcDbArc
 50
175.4386958831
 51
177.3529327682
  0
ARC
  5
72E
330
1F
100
AcDbEntity
  8
0
  6
CONTINUOUS
 62
     7
100
AcDbCircle
 10
148.9802305945
 20
285.6162596864
 30
0.0
 40
20.00000000000043
100
AcDbArc
 50
23.625674708
 51
51.9620531432
  0
ARC
  5
72F
330
1F
100
AcDbEntity
  8
0
  6
CONTINUOUS
 62
     7
100
AcDbCircle
 10
349.9999906299
 20
195.0000024507
 30
0.0
 40
200.5000000002412
100
AcDbArc
 50
166.4577468194
 51
168.2541959517
  0
ARC
  5
730
330
1F
100
AcDbEntity
  8
0
  6
CONTINUOUS
 62
     7
100
AcDbCircle
 10
349.9999906297
 20
195.0000024508
 30
0.0
 40
200.4999999999717
100
AcDbArc
 50
155.7349657213
 51
162.7577239077
  0
ARC
  5
731
330
1F
100
AcDbEntity
  8
0
  6
CONTINUOUS
 62
     7
100
AcDbCircle
 10
148.9802305925
 20
285.6162596873
 30
0.0
 40
20.00000000219873
100
AcDbArc
 50
335.7349657213
 51
336.374325292
  0
ARC
  5
732
330
1F
100
AcDbEntity
  8
0
  6
CONTINUOUS
 62
     7
100
AcDbCircle
 10
148.9802305945
 20
285.6162596865
 30
0.0
 40
20.00000000000134
100
AcDbArc
 50
351.4846917718
 51
11.1722763998
  0
ARC
  5
733
330
1F
100
AcDbEntity
  8
0
  6
CONTINUOUS
 62
     7
100
AcDbCircle
 10
147.74723857
 20
195.0000024509
 30
0.0
 40
102.7472479402838
100
AcDbArc
 50
124.4463481352
 51
128.1016930399
  0
ARC
  5
734
330
1F
100
AcDbEntity
  8
0
  6
CONTINUOUS
 62
     7
100
AcDbCircle
 10
147.74723857
 20
195.0000024508
 30
0.0
 40
102.7472479403245
100
AcDbArc
 50
141.6039739637
 51
144.9733732787
  0
ARC
  5
735
330
1F
100
AcDbEntity
  8
0
  6
CONTINUOUS
 62
     7
100
AcDbCircle
 10
147.7472385701
 20
195.0000024508
 30
0.0
 40
102.7472479403473
100
AcDbArc
 50
131.3848875278
 51
140.4762776959
  0
ARC
  5
736
330
1F
100
AcDbEntity
  8
0
  6
CONTINUOUS
 62
     7
100
AcDbCircle
 10
147.7472385701
 20
195.0000024508
 30
0.0
 40
102.7472479404055
100
AcDbArc
 50
147.2092679657
 51
150.5562085986
  0
ARC
  5
737
330
1F
100
AcDbEntity
  8
0
  6
CONTINUOUS
 62
     7
100
AcDbCircle
 10
349.9999906297
 20
195.0000024508
 30
0.0
 40
200.4999999999697
100
AcDbArc
 50
171.8356553552
 51
173.9852114463
  0
ARC
  5
738
330
1F
100
AcDbEntity
  8
0
  6
CONTINUOUS
 62
     7
100
AcDbCircle
 10
148.9802305945
 20
285.6162596864
 30
0.0
 40
20.00000000005031
100
AcDbArc
 50
106.0954118152
 51
112.1699401587
  0
ARC
  5
739
330
1F
100
AcDbEntity
  8
0
  6
CONTINUOUS
 62
     7
100
AcDbCircle
 10
350.0000258803
 20
-207.7073920496
 30
0.0
 40
552.7074088643017
100
AcDbArc
 50
112.1699401587
 51
114.2052199371
  0
ARC
  5
73A
330
1F
100
AcDbEntity
  8
0
  6
CONTINUOUS
 62
     7
100
AcDbCircle
 10
148.9802305945
 20
285.6162596864
 30
0.0
 40
20.00000000000079
100
AcDbArc
 50
58.9234229057
 51
86.6887586324
  0
ARC
  5
73B
330
1F
100
AcDbEntity
  8
0
  6
CONTINUOUS
 62
     7
100
AcDbCircle
 10
147.7472385701
 20
195.0000024508
 30
0.0
 40
102.7472479403651
100
AcDbArc
 50
165.9742491505
 51
170.4622947623
  0
ARC
  5
73C
330
1F
100
AcDbEntity
  8
0
  6
CONTINUOUS
 62
     7
100
AcDbCircle
 10
147.7472385701
 20
195.0000024508
 30
0.0
 40
102.747247940357
100
AcDbArc
 50
151.6717132265
 51
155.8102642314
  0
ARC
  5
73D
330
1F
100
AcDbEntity
  8
0
  6
CONTINUOUS
 62
     7
100
AcDbCircle
 10
147.7472385701
 20
195.0000024508
 30
0.0
 40
102.7472479403915
100
AcDbArc
 50
223.8232850495
 51
228.2594479205
  0
ARC
  5
73E
330
1F
100
AcDbEntity
  8
0
  6
CONTINUOUS
 62
     7
100
AcDbCircle
 10
147.7472385701
 20
195.0000024508
 30
0.0
 40
102.7472479403836
100
AcDbArc
 50
219.2702187542
 51
222.6788788912
  0
ARC
  5
73F
330
1F
100
AcDbEntity
  8
0
  6
CONTINUOUS
 62
     7
100
AcDbCircle
 10
349.9999906305
 20
597.7074113166
 30
0.0
 40
552.7074056414958
100
AcDbArc
 50
245.737173358
 51
246.507187272
  0
ARC
  5
740
330
1F
100
AcDbEntity
  8
0
  6
CONTINUOUS
 62
     7
100
AcDbCircle
 10
349.9999906288
 20
597.7074113129
 30
0.0
 40
552.7074088618689
100
AcDbArc
 50
244.5699890574
 51
245.2567605675
  0
ARC
  5
741
330
1F
100
AcDbEntity
  8
0
  6
CONTINUOUS
 62
     7
100
AcDbCircle
 10
349.9999906286
 20
597.7074113123
 30
0.0
 40
552.7074088612301
100
AcDbArc
 50
246.7681920834
 51
247.4433658501
  0
ARC
  5
742
330
1F
100
AcDbEntity
  8
0
  6
CONTINUOUS
 62
     7
100
AcDbCircle
 10
148.9802305945
 20
104.3837452152
 30
0.0
 40
20.00000000000009
100
AcDbArc
 50
272.8750385716
 51
336.374325292
  0
ARC
  5
743
330
1F
100
AcDbEntity
  8
0
  6
CONTINUOUS
 62
     7
100
AcDbCircle
 10
552.2527426892
 20
195.0000024507
 30
0.0
 40
102.7472479405189
100
AcDbArc
 50
35.0266267213
 51
38.3960260363
  0
ARC
  5
744
330
1F
100
AcDbEntity
  8
0
  6
CONTINUOUS
 62
     7
100
AcDbCircle
 10
349.9999553789
 20
-207.7073920499
 30
0.0
 40
552.7074088646128
100
AcDbArc
 50
65.7947800629
 51
67.8300598413
  0
ARC
  5
745
330
1F
100
AcDbEntity
  8
0
  6
CONTINUOUS
 62
     7
100
AcDbCircle
 10
551.0197506649
 20
285.6162596863
 30
0.0
 40
20.00000000010691
100
AcDbArc
 50
67.8300598413
 51
73.9045881848
  0
ARC
  5
746
330
1F
100
AcDbEntity
  8
0
  6
CONTINUOUS
 62
     7
100
AcDbCircle
 10
349.9999906299
 20
195.0000024508
 30
0.0
 40
200.4999999998014
100
AcDbArc
 50
347.189459216
 51
348.9932944023
  0
ARC
  5
747
330
1F
100
AcDbEntity
  8
0
  6
CONTINUOUS
 62
     7
100
AcDbCircle
 10
349.99999063
 20
195.0000024507
 30
0.0
 40
200.4999999997214
100
AcDbArc
 50
344.5995300341
 51
345.9967110748
  0
ARC
  5
748
330
1F
100
AcDbEntity
  8
0
  6
CONTINUOUS
 62
     7
100
AcDbCircle
 10
349.99999063
 20
195.0000024507
 30
0.0
 40
200.499999999673
100
AcDbArc
 50
342.0085686649
 51
343.7795793198
  0
ARC
  5
749
330
1F
100
AcDbEntity
  8
0
  6
CONTINUOUS
 62
     7
100
AcDbCircle
 10
552.2527426891
 20
195.000002451
 30
0.0
 40
102.7472479406411
100
AcDbArc
 50
322.9832000202
 51
326.3440747646
  0
ARC
  5
74A
330
1F
100
AcDbEntity
  8
0
  6
CONTINUOUS
 62
     7
100
AcDbCircle
 10
552.2527426892
 20
195.0000024509
 30
0.0
 40
102.7472479405052
100
AcDbArc
 50
317.3211211088
 51
320.7297812458
  0
ARC
  5
74B
330
1F
100
AcDbEntity
  8
0
  6
CONTINUOUS
 62
     7
100
AcDbCircle
 10
349.9999906302
 20
195.0000024506
 30
0.0
 40
200.4999999994911
100
AcDbArc
 50
338.5867981297
 51
340.3250693738
  0
ARC
  5
74C
330
1F
100
AcDbEntity
  8
0
  6
CONTINUOUS
 62
     7
100
AcDbCircle
 10
349.9999906298
 20
597.7074113147
 30
0.0
 40
552.7074056393631
100
AcDbArc
 50
293.492812728
 51
294.2628266421
  0
ARC
  5
74D
330
1F
100
AcDbEntity
  8
0
  6
CONTINUOUS
 62
     7
100
AcDbCircle
 10
349.9999906329
 20
597.7074113083
 30
0.0
 40
552.7074088567621
100
AcDbArc
 50
295.8900353623
 51
296.5834626129
  0
ARC
  5
74E
330
1F
100
AcDbEntity
  8
0
  6
CONTINUOUS
 62
     7
100
AcDbCircle
 10
349.9999906318
 20
597.7074113103
 30
0.0
 40
552.707408859047
100
AcDbArc
 50
294.7432394325
 51
295.4300109426
  0
ARC
  5
74F
330
1F
100
AcDbEntity
  8
0
  6
CONTINUOUS
 62
     7
100
AcDbCircle
 10
551.0197506649
 20
285.6162596865
 30
0.0
 40
19.99999999999955
100
AcDbArc
 50
128.0379468568
 51
156.374325292
  0
ARC
  5
750
330
1F
100
AcDbEntity
  8
0
  6
CONTINUOUS
 62
     7
100
AcDbCircle
 10
551.0197506649
 20
285.6162596865
 30
0.0
 40
20.00000000000013
100
AcDbArc
 50
168.8277236002
 51
188.5153082282
  0
ARC
  5
751
330
1F
100
AcDbEntity
  8
0
  6
CONTINUOUS
 62
     7
100
AcDbCircle
 10
349.9999906291
 20
195.0000024508
 30
0.0
 40
200.500000000561
100
AcDbArc
 50
359.3797483315
 51
1.3524435575
  0
ARC
  5
752
330
1F
100
AcDbEntity
  8
0
  6
CONTINUOUS
 62
     7
100
AcDbCircle
 10
349.9999906301
 20
195.0000024508
 30
0.0
 40
200.4999999996315
100
AcDbArc
 50
6.0147885537
 51
8.1643446448
  0
ARC
  5
753
330
1F
100
AcDbEntity
  8
0
  6
CONTINUOUS
 62
     7
100
AcDbCircle
 10
349.9999906297
 20
195.0000024508
 30
0.0
 40
200.500000000051
100
AcDbArc
 50
2.6470672318
 51
4.5613041169
  0
ARC
  5
754
330
1F
100
AcDbEntity
  8
0
  6
CONTINUOUS
 62
     7
100
AcDbCircle
 10
552.2527426893
 20
195.0000024508
 30
0.0
 40
102.7472479403521
100
AcDbArc
 50
39.5237223041
 51
48.6151124722
  0
ARC
  5
755
330
1F
100
AcDbEntity
  8
0
  6
CONTINUOUS
 62
     7
100
AcDbCircle
 10
349.9999906297
 20
195.0000024508
 30
0.0
 40
200.4999999999806
100
AcDbArc
 50
17.2422760923
 51
24.2650342787
  0
ARC
  5
756
330
1F
100
AcDbEntity
  8
0
  6
CONTINUOUS
 62
     7
100
AcDbCircle
 10
551.0197506647
 20
285.6162596864
 30
0.0
 40
19.99999999982953
100
AcDbArc
 50
203.6256747079
 51
204.2650342787
  0
ARC
  5
757
330
1F
100
AcDbEntity
  8
0
  6
CONTINUOUS
 62
     7
100
AcDbCircle
 10
552.2527426893
 20
195.0000024508
 30
0.0
 40
102.7472479403802
100
AcDbArc
 50
342.0125203054
 51
349.376786451
  0
ARC
  5
758
330
1F
100
AcDbEntity
  8
0
  6
CONTINUOUS
 62
     7
100
AcDbCircle
 10
552.2527426893
 20
195.0000024508
 30
0.0
 40
102.7472479403625
100
AcDbArc
 50
356.6519995271
 51
8.1078977185
  0
ARC
  5
759
330
1F
100
AcDbEntity
  8
0
  6
CONTINUOUS
 62
     7
100
AcDbCircle
 10
552.2527426893
 20
195.0000024508
 30
0.0
 40
102.7472479404283
100
AcDbArc
 50
330.0281129428
 51
336.158853453
  0
ARC
  5
75A
330
1F
100
AcDbEntity
  8
0
  6
CONTINUOUS
 62
     7
100
AcDbCircle
 10
552.2527426893
 20
195.0000024508
 30
0.0
 40
102.7472479403546
100
AcDbArc
 50
24.1897357686
 51
28.3282867735
  0
ARC
  5
75B
330
1F
100
AcDbEntity
  8
0
  6
CONTINUOUS
 62
     7
100
AcDbCircle
 10
349.9999906297
 20
195.0000024508
 30
0.0
 40
62.4999999999993
100
AcDbArc
 50
187.3540352104
 51
172.6459647896
  0
ARC
  5
75C
330
1F
100
AcDbEntity
  8
0
  6
CONTINUOUS
 62
     7
100
AcDbCircle
 10
349.9999906297
 20
195.0000024508
 30
0.0
 40
49.49999999999928
100
AcDbArc
 50
189.3007164776
 51
170.6992835224
  0
ARC
  5
75D
330
1F
100
AcDbEntity
  8
0
  6
CONTINUOUS
 62
     7
100
AcDbCircle
 10
349.9999906297
 20
195.0000024508
 30
0.0
 40
120.5000000000005
100
AcDbArc
 50
3.8066690824
 51
356.1933309176
  0
ARC
  5
75E
330
1F
100
AcDbEntity
  8
0
  6
CONTINUOUS
 62
     7
100
AcDbCircle
 10
349.9999906297
 20
195.0000024508
 30
0.0
 40
107.5000000000009
100
AcDbArc
 50
4.2678174498
 51
355.7321825502
  0
ARC
  5
75F
330
1F
100
AcDbEntity
  8
0
  6
CONTINUOUS
 62
     7
100
AcDbCircle
 10
349.9999906297
 20
195.0000024508
 30
0.0
 40
78.49999999999828
100
AcDbArc
 50
95.8492150992
 51
84.1507849008
  0
ARC
  5
760
330
1F
100
AcDbEntity
  8
0
  6
CONTINUOUS
 62
     7
100
AcDbCircle
 10
349.9999906297
 20
195.0000024508
 30
0.0
 40
91.49999999999848
100
AcDbArc
 50
95.0158714289
 51
84.9841285711
  0
ARC
  5
761
330
1F
100
AcDbEntity
  8
0
  6
CONTINUOUS
 62
     7
100
AcDbCircle
 10
349.9999906297
 20
195.0000024508
 30
0.0
 40
149.4999999999987
100
AcDbArc
 50
93.0674600265
 51
86.9325399735
  0
ARC
  5
762
330
1F
100
AcDbEntity
  8
0
  6
CONTINUOUS
 62
     7
100
AcDbCircle
 10
349.9999906297
 20
195.0000024508
 30
0.0
 40
136.4999999999981
100
AcDbArc
 50
93.3599197796
 51
86.6400802204
  0
ARC
  5
763
330
1F
100
AcDbEntity
  8
0
  6
CONTINUOUS
 62
     7
100
AcDbCircle
 10
233.3367873482
 20
185.0
 30
0.0
 40
580.6296296296348
100
AcDbArc
 50
343.9500743407
 51
16.0499256593
  0
ARC
  5
764
330
1F
100
AcDbEntity
  8
0
  6
CONTINUOUS
 62
     7
100
AcDbCircle
 10
772.1137185717
 20
30.0
 30
0.0
 40
20.00000000000067
100
AcDbArc
 50
270.0
 51
343.9500743407
  0
ARC
  5
765
330
1F
100
AcDbEntity
  8
0
  6
CONTINUOUS
 62
     7
100
AcDbCircle
 10
772.1137185717
 20
340.0
 30
0.0
 40
19.99999999999958
100
AcDbArc
 50
16.0499256593
 51
90.0
  0
ARC
  5
766
330
1F
100
AcDbEntity
  8
0
  6
CONTINUOUS
 62
     7
100
AcDbCircle
 10
171.3703703704
 20
185.0
 30
0.0
 40
580.6296296296268
100
AcDbArc
 50
343.9500743407
 51
359.0871833712
  0
ARC
  5
767
330
1F
100
AcDbEntity
  8
0
  6
CONTINUOUS
 62
     7
100
AcDbCircle
 10
171.3703703704
 20
185.0
 30
0.0
 40
580.6296296296107
100
AcDbArc
 50
0.9128166288
 51
16.0499256593
  0
ARC
  5
768
330
1F
100
AcDbEntity
  8
0
  6
CONTINUOUS
 62
     7
100
AcDbCircle
 10
710.1473015939
 20
30.0
 30
0.0
 40
20.00000000000054
100
AcDbArc
 50
270.0
 51
343.9500743407
  0
ARC
  5
769
330
1F
100
AcDbEntity
  8
0
  6
CONTINUOUS
 62
     7
100
AcDbCircle
 10
710.1473015939
 20
340.0
 30
0.0
 40
19.99999999999966
100
AcDbArc
 50
16.0499256593
 51
90.0
  0
ENDSEC
  0
SECTION
  2
OBJECTS
  0
DICTIONARY
  5
C
330
0
100
AcDbDictionary
  3
ACAD_GROUP
350
D
  3
ACAD_MLINESTYLE
350
17
  3
ACAD_SCALELIST
350
47
  3
DWGPROPS
350
76A
  0
DICTIONARY
  5
D
102
{ACAD_REACTORS
330
C
102
}
330
C
100
AcDbDictionary
  0
DICTIONARY
  5
17
102
{ACAD_REACTORS
330
C
102
}
330
C
100
AcDbDictionary
  3
STANDARD
350
18
  0
DICTIONARY
  5
47
102
{ACAD_REACTORS
330
C
102
}
330
C
100
AcDbDictionary
  0
XRECORD
  5
76A
102
{ACAD_REACTORS
330
C
102
}
330
C
100
AcDbXrecord
  1
DWGPROPS COOKIE
  2

  3

  4

  6

  7

  8
TURBO
  9

300
=
301
=
302
=
303
=
304
=
305
=
306
=
307
=
308
=
309
=
 40
0.0
 41
2459260.552622963
 42
2459260.552651945
  1

 90
        0
  0
MLINESTYLE
  5
18
102
{ACAD_REACTORS
330
17
102
}
330
17
100
AcDbMlineStyle
  2
Standard
 70
     0
  3

 62
   256
 51
90.0
 52
90.0
 71
     2
 49
0.5
 62
   256
  6
BYLAYER
 49
-0.5
 62
   256
  6
BYLAYER
  0
ENDSEC
  0
EOF
